Oops, an error
Loading. Please wait.

Vincerò Tab

43 views 18 this week
no commentswrite comment
1 2 3 4 5
3 more votes to show rating
add to favorites
launch autoscroll
font size
0
reset
how to read this tab
guitar tuner
Autoscroll
slow
fast
+/-
esc
set tempo
stop
Help us to improve Ultimate-Guitar.com Take our survey!
×
Author
Difficulty
[Intro]

E|-----0--1--0--1--0----------|
B|--1-----------------1--3----|
G|----------------------------|
D|----------------------------| repeat 2 times
A|--3-------------------------|
E|----------------------------|


E|-----0--1--0--1--0----------|
B|--1-----------------1--3----|
G|----------------------------|
D|----------------------------| repeat 2 times
A|----------------------------|
E|--3-------------------------|


E|-----0--3--0--3--0----------|
B|--1-----------------1--3----|
G|----------------------------|
D|----------------------------| repeat 2 times
A|--0-------------------------|
E|----------------------------|


E|-----0--1--0--1--0-----------0--1--0--3--0----------|
B|--1-----------------1--3--1-----------------1--3----|
G|----------------------------------------------------|
D|----------------------------------------------------| 
A|----------------------------------------------------|
E|--1-----------------------1-------------------------|
Suggest correction
Give kudos to tab author, rate the tab!
1 2 3 4 5
comments
print report bad tab
guest
You may want to rate the tab now too:
select rating
Wanna post a correction for this tab? Suggest correction