Oops, an error
Loading. Please wait.

リサフランク420 現代のコンピュー Bass Tab

version 1
version 1

Whole song

  • It has every part of the song listed and titled pr... Show more

Interactive

61 views 33 this week
1 commentread comment
1 2 3 4 5
2 more votes to show rating
add to favorites
launch autoscroll
font size
0
reset
guitar tuner
Autoscroll
slow
fast
+/-
esc
set tempo
stop
Help us to improve Ultimate-Guitar.com Take our survey!
×
Author
Difficulty
intermediate
About this tab version
It has every part of the song listed and titled properly. It is also the only version of this song tabbed out for bass completely. Was this info helpful? Yes No
Finger-picked

[Intro]

Melody A:
G|---------------------------------------------------------------------------|
D|---4-4--4-2-0-----0--------------------------------------------------------|
A|-2------------4-4---2------------------------------------------------------|
E|---------------------------------------------------------------------------|

Melody Interlude A:
G|--4--2---------------------------------------------------------------------|
D|-----------0---------------------------------------------------------------|
A|---------2---2-------------------------------------------------------------|
E|---------------------------------------------------------------------------|

Melody B:
G|---------------------------------------------------------------------------|
D|--4-4--4-2-0-------4-------------------------------------------------------|
A|-------------4-4-2---------------------------------------------------------|
E|---------------------------------------------------------------------------|

Bass Interlude A: 
G|---------------------------------------------------------------------------|
D|---------------------------------------------------------------------------|
A|-------0-0-----------------------------------------------------------------|
E|--3-3----------------------------------------------------------------------|

Melody C:
G|---------------------------------------------------------------------------|
D|-0----4-4--4-2-0-----0-----------------------------------------------------|
A|---2-------------4-4---2---------------------------------------------------|
E|---------------------------------------------------------------------------|

Melody Interlude B:  (Variant A can be played in it's place)
G|---------------------------------------------------------------------------|
D|----------0----------------------------------------------------------------|
A|--2--0--2---2--------------------------------------------------------------|
E|---------------------------------------------------------------------------|

Melody B:
G|---------------------------------------------------------------------------|
D|--4-4--4-2-0-------4-------------------------------------------------------|
A|-------------4-4-2---------------------------------------------------------|
E|---------------------------------------------------------------------------|

Bass Interlude B: 
G|---------------------------------------------------------------------------|
D|---------------------------------------------------------------------------|
A|---------------------------------------------------------------------------|
E|--0-0--2-2-----------------------------------------------------------------|

Melody C:
G|---------------------------------------------------------------------------|
D|-0----4-4--4-2-0-----0-----------------------------------------------------|
A|---2-------------4-4---2---------------------------------------------------|
E|---------------------------------------------------------------------------|

Melody Interlude A:
G|--4--2---------------------------------------------------------------------|
D|-----------0---------------------------------------------------------------|
A|---------2---2-------------------------------------------------------------|
E|---------------------------------------------------------------------------|

Melody D:
G|---------------------------------------------------------------------------|
D|---4-4--4-2-0-------4------------------------------------------------------|
A|-2------------4-4-2--------------------------------------------------------|
E|---------------------------------------------------------------------------|

Bass Interlude C: 
G|---------------------------------------------------------------------------|
D|---------------------------------------------------------------------------|
A|---------------------------------------------------------------------------|
E|--0-0--2-2-2-2-------------------------------------------------------------|

Melody A:
G|---------------------------------------------------------------------------|
D|---4-4--4-2-0-----0--------------------------------------------------------|
A|-2------------4-4---2------------------------------------------------------|
E|---------------------------------------------------------------------------|

Melody Interlude B:  
G|---------------------------------------------------------------------------|
D|----------0----------------------------------------------------------------|
A|--2--0--2---2--------------------------------------------------------------|
E|---------------------------------------------------------------------------|

Melody B:
G|---------------------------------------------------------------------------|
D|--4-4--4-2-0-------4-------------------------------------------------------|
A|-------------4-4-2---------------------------------------------------------|
E|---------------------------------------------------------------------------|

Bass Interlude D: 
G|---------------------------------------------------------------------------|
D|---------------------------------------------------------------------------|
A|---------------------------------------------------------------------------|
E|--3-3-0-2-2-2-2------------------------------------------------------------|

Melody E:
G|-4-------------------------------------------------------------------------|
D|---4-4--4-2-0-----0--------------------------------------------------------|
A|--------------4-4---2------------------------------------------------------|
E|---------------------------------------------------------------------------|

Melody Interlude C:
G|--16-14--------------------------------------------------------------------|
D|-----------0---------------------------------------------------------------|
A|---------2---2-------------------------------------------------------------|
E|---------------------------------------------------------------------------|

Melody B:
G|---------------------------------------------------------------------------|
D|--4-4--4-2-0-------4-------------------------------------------------------|
A|-------------4-4-2---------------------------------------------------------|
E|---------------------------------------------------------------------------|


This is completely loopable. If you want to extend the song out just repeat from the beginning. 
************************************

| x   Dead note
| g   Grace note
| (n) Ghost note
| h   Hammer-on
| p   Pull-off
| r   Release
| >   Accented note
| t   Tapping
| b   Bend
| br  Bend release
| pb  Pre-bend
| pbr Pre-bend release
| /   Slide up
| \   Slide down
| ~   Vibrato
| s   Slap
| P   Pop
| PM  Palm mute
| TR  Trill
| N   Tremolo

************************************
Suggest correction
Give kudos to tab author, rate the tab!
1 2 3 4 5
comments
print report bad tab
1 comment total.
0 reply
jh72011.cb 10 a day ago

im struggling w this one man. any help ?
skype?

guest
You may want to rate the tab now too:
select rating
Wanna post a correction for this tab? Suggest correction