Oops, an error
Loading. Please wait.

Tão Sozinho Bass Tab

10 views 1 this week
no commentswrite comment
1 2 3 4 5
3 more votes to show rating
add to favorites
launch autoscroll
font size
0
reset
guitar tuner
Autoscroll
slow
fast
+/-
esc
set tempo
stop
Help us to improve Ultimate-Guitar.com Take our survey!
×
Author
Difficulty
novice
Tuning :

G
D
A
D#

Bass Start - 00:03


[Intro]
G |-------------------|
D |-------------------|
A |-------------------|
D#|12-\-13-\-12-\-12-\|

G |---------------|---------------|---------------|---------------|
D |---------------|---------------|---------------|---------------|
A |---------------|---------------|---------------|---------------|
D#|0-0-0-0-3-3-3-3|5-5-5-5-7-7-7-7|0-0-0-0-3-3-3-3|5-5-5-5-7-7-7-7|

[Verse 1]
G |---------------|---------------|---------------|---------------|
D |---------------|---------------|---------------|---------------|
A |---------------|---------------|---------------|---------------|
D#|0-0-0-0-3-3-3-3|5-5-5-5-7-7-7-7|0-0-0-0-3-3-3-3|5-5-5-5-7-7-7-7|

[Chorus]
G |---------------|---------------|---------------|---------------|
D |---------------|---------------|---------------|---------------|
A |---------------|---------------|---------------|---------------|
D#|4-4-4-4-4-4-4-4|5-5-5-5-5-5-5-5|4-4-4-4-4-4-4-4|5-5-5-5-5-5-5-5|

G |---------------|----------------|
D |---------------|----------------|
A |3-3-3-3--------|----------------|
D#|--------5-5-5-5|7---------------|

[Interlude]
G |---------------|---------------|---------------|---------------|
D |---------------|---------------|---------------|---------------|
A |---------------|---------------|---------------|---------------|
D#|0-0-0-0-3-3-3-3|5-5-5-5-7-7-7-7|0-0-0-0-3-3-3-3|5-5-5-5-7-7-7-7|

[Verse 2]
G |---------------|---------------|---------------|---------------|
D |---------------|---------------|---------------|---------------|
A |---------------|---------------|---------------|---------------|
D#|0-0-0-0-3-3-3-3|5-5-5-5-7-7-7-7|0-0-0-0-3-3-3-3|5-5-5-5-7-7-7-7|

[Chorus]
G |---------------|---------------|---------------|---------------|
D |---------------|---------------|---------------|---------------|
A |---------------|---------------|---------------|---------------|
D#|4-4-4-4-4-4-4-4|5-5-5-5-5-5-5-5|4-4-4-4-4-4-4-4|5-5-5-5-5-5-5-5|

G |---------------|----------------|
D |---------------|----------------|
A |3-3-3-3--------|----------------|
D#|--------5-5-5-5|7---------------|

[Interlude]
G |---------------|---------------|---------------|---------------| (x2)
D |---------------|---------------|---------------|---------------|
A |---------------|---------------|---------------|---------------|
D#|0-0-0-0-3-3-3-3|5-5-5-5-7-7-7-7|0-0-0-0-3-3-3-3|5-5-5-5-7-7-7-7|

G |--------------------|
D |--------------------|
A |--------------------|
D#|0----0----0----0----|

[Chorus]
G |---------------|---------------|---------------|---------------|
D |---------------|---------------|---------------|---------------|
A |---------------|---------------|---------------|---------------|
D#|4-4-4-4-4-4-4-4|5-5-5-5-5-5-5-5|4-4-4-4-4-4-4-4|5-5-5-5-5-5-5-5|

G |---------------|----------------|
D |---------------|----------------|
A |3-3-3-3--------|----------------|
D#|--------5-5-5-5|7---------------|

[Outro]
G |---------------|---------------|---------------|---------------| (x2)
D |---------------|---------------|---------------|---------------|
A |---------------|---------------|---------------|---------------|
D#|0-0-0-0-3-3-3-3|5-5-5-5-7-7-7-7|0-0-0-0-3-3-3-3|5-5-5-5-7-7-7-7|

G |--------------------|-----------------|
D |--------------------|-----------------|
A |--------------------|-----------------|
D#|0----0----0----0----|-0-0-0-0-0-0-0-0-|



*****************************

| \ slide down

*****************************
Suggest correction
Give kudos to tab author, rate the tab!
1 2 3 4 5
comments
print report bad tab
guest
You may want to rate the tab now too:
select rating
Wanna post a correction for this tab? Suggest correction