Oops, an error
Loading. Please wait.

Une Seul Vie Chords

version 2
version 2

Whole song

88 views 3 this week
no commentswrite comment
1 2 3 4 5
3 more votes to show rating
add to favorites
launch autoscroll
font size
0
reset
transpose
0
reset
simplify chords
display chords
guitar tuner
Autoscroll
slow
fast
+/-
esc
set tempo
stop
Difficulty
intermediate
About this tab version
Tout les accords, tablature ... Was this info helpful? Yes No
Strumming
There is no strumming pattern for this song yet. and get +5 IQ
----------------------------------------------------------------------------------------------------
                           Gérald de Palmas - Une Seul Vie
----------------------------------------------------------------------------------------------------

Album : Marcher dans le sable (2000)
Tempo : 100

[Intro]

e|------------|
B|------------|
G|------------| A jouer avant chaque couplet
D|------------|
A|-------0--2-|
E|----3-------|

   C           G     Am           F       C           G     Am         F 
e|------------------|------------------|------------------|------------------|
B|---------1h0----0-|---------1----1---|---------1h0----0-|---------1--1--0--|
G|--------0-------0-|--------2-----2---|--------0-------0-|--------2---2--0--|
D|-----0h2--------0-|-----0h2------3---|-----0h2--------0-|-----0h2----3--0--|
A|--3-3-------------|-0-0----------3---|--3-3-------------|-0-0--------------|
E|-------------3----|------------1-----|-------------3----|------------------|



[Verse]
C         G       Am      F
  Marcher dans le sable
C       G      Am      F                                                   
  Se sentir coupable
C          G      Am      F                                                      
  Dans les herbes hautes
C                          E7
  C'est sûr tout est de ma faute 

C        G          Am      F
  Savoir dire tant pis                                                          
C       G       Am      F
  Avoir juste envie                                                       
C        G        Am      F
  Rester dans son lit 
C                     E7
   Tout ça m'est interdit 
  

[Chorus]
            Am                F
Il faut que quelqu'un m'aide
               C         G 
Je n'ai qu'une seule vie
          Am         F 
A trouver le remède
               C         G 
Je n'ai qu'une seule vie
                  Am            F  
Chaque jour cette pensée m'obsède
        C            G            Am  F C G
Je n'ai qu'une seule qu'une seule vie


[Verse]                                                      
C             G       Am      F
  Faire comme tout le monde                                                     
C        G       Am      F
  Entrer dans la ronde                                                    
C         G      Am      F
  Surtout pas de vagues                   
C                      E7
  D'ici personne ne s'évade  


[Chorus]


[Pont]
F                  C                G
Inquiet, soucieux, honnêtes jour et nuit
   Dm             Am      G      E7
Voila ce qu'est devenu ma vie                

[Chorus] x3
Suggest correction
Give kudos to tab author, rate the tab!
1 2 3 4 5
comments
print report bad tab
guest
You may want to rate the tab now too:
select rating
Wanna post a correction for this tab? Suggest correction