Oops, an error
Loading. Please wait.

Für Elise Tab

version 1
version 1

Acoustic

  • This piece was transposed from its original key wh... Show more
52 views 27 this week
no commentswrite comment
1 2 3 4 5
3 more votes to show rating
add to favorites
launch autoscroll
font size
0
reset
how to read this tab
guitar tuner
Autoscroll
slow
fast
+/-
esc
set tempo
stop
Help us to improve Ultimate-Guitar.com Take our survey!
×
Author
Difficulty
Tuning
novice
D A D G B E
About this tab version
This piece was transposed from its original key which is A minor to the key of D minor. Was this info helpful? Yes No
Arranged By Konstantin Vassiliev
 https://www.youtube.com/watch?v=pn18BGQYrR4

Drop D Tuning!!

Intro                                                                          
e|-5-4|-5-4-5-0-3-1|---------|0------0|1----5-4|5-4-5-0-3-1|-----|0---1-0|--|
B|----|------------|-3------3|------2-|--------|-----------|3---3|-------|3-|
G|----|------------|-------2-|----2---|---2----|-----------|---2-|--2----|--|
D|----|------------|-----3---|--2-----|--------|-----------|--3--|-2-----|--|
A|----|------------|---0-----|0-------|-0------|-----------|-0---|0------|-0|
D|----|------------|-0-------|--------|0-------|-----------|0----|-------|0-|

e|-5-4|-5-4-5-0-3-1|---------|0------0|1----5-4|5-4-5-0-3-1|-----|0---1-0|------|
B|----|------------|-3------3|------2-|--------|-----------|3---3|-------|3-----|
G|----|------------|-------2-|----2---|---2----|-----------|---2-|--2----|-----0|
D|----|------------|-----3---|--2-----|--------|-----------|--3--|-2-----|0-2-3-|
A|----|------------|---0-----|0-------|-0------|-----------|-0---|0------|------|
D|----|------------|-0-------|--------|0-------|-----------|0----|-------|------|

  Part 2
e|--1------|---0-----|--------|----5--|-5-5-4-5-4|5-4-5-4|5-4-5-0-3-1|--------|0-------0|
B|---------|---------|--3-----|2------|----------|-------|-----------|3------3|------2--|
G|2-----3-2|0----2-0-|-----0--|--2---2|--2-------|-------|-----------|------2-|----2----|
D|---------|---------|3------3|2------|----------|-------|-----------|----3---|--2------|
A|----3----|----1----|----0---|-------|----------|-------|-----------|--0-----|0--------|
D|---------|---------|--------|-------|----------|-------|-----------|0-------|---------|

e|1---5-4|5-4-5-0-3-1|-----------|0----1-0|--------|
B|-------|-----------|3-------3--|--------|3-------|
G|--2----|-----------|------2----|---2----|--------|
D|-------|-----------|----3------|--2-----|0-2--3-0|
A|-------|-----------|--0--------|0-------|--------|
D|0------|-----------|0----------|--------|--------|

e|--1------|---0-----|--------|----5--|-5-5-4-5-4|5-4-5-4|5-4-5-0-3-1|--------|0-------0|
B|---------|---------|--3-----|2------|----------|-------|-----------|3------3|------2--|
G|2-----3-2|0----2-0-|-----0--|--2---2|--2-------|-------|-----------|------2-|----2----|
D|---------|---------|3------3|2------|----------|-------|-----------|----3---|--2------|
A|----3----|----1----|----0---|-------|----------|-------|-----------|--0-----|0--------|
D|---------|---------|--------|-------|----------|-------|-----------|0-------|---------|
                                             End
e|1---5-4|5-4-5-0-3-1|-----------|0----1-0|-------|
B|-------|-----------|3-------3--|--------|3------|
G|--2----|-----------|------2----|---2----|-------|
D|-------|-----------|----3------|--2-----|0------|
A|-------|-----------|--0--------|0-------|-------|
D|0------|-----------|0----------|--------|-------|
Suggest correction
Give kudos to tab author, rate the tab!
1 2 3 4 5
comments
print report bad tab
guest
You may want to rate the tab now too:
select rating
Wanna post a correction for this tab? Suggest correction