Oops, an error
Loading. Please wait.

Les Misérables - I Dreamed A Dream - On My Own Tab

10 views 10 this week
no commentswrite comment
1 2 3 4 5
3 more votes to show rating
add to favorites
launch autoscroll
font size
0
reset
how to read this tab
guitar tuner
Autoscroll
slow
fast
+/-
esc
set tempo
stop
Help us to improve Ultimate-Guitar.com Take our survey!
×
Author
Difficulty
intermediate
About this tab version
This is the tab version of a nice mash-up I saw on here about an hour before making this. Was this info helpful? Yes No
[Fantine]

e|-1-1-1-1-0-1-3-5---1-1-1-1-1-3-5---1---------------------------------------|
B|---------------------------------3-----------------------------------------|
G|---------------------------------------------------------------------------|
D|---------------------------------------------------------------------------|
A|---------------------------------------------------------------------------|
E|---------------------------------------------------------------------------|
I dreamed a dream in times gone by. When hope was high and life worth living

e|-5-5-5-5-3-6-8---5-5-5-5-5-6-8---1-----------------------------------------|
B|-------------------------------3-------------------------------------------|
G|---------------------------------------------------------------------------|
D|---------------------------------------------------------------------------|
A|---------------------------------------------------------------------------|
E|---------------------------------------------------------------------------|
I dreamed, that love would never die. I dreamed that God would be forgiving

e|-1-1-1-1-0-1-3-5---1-1-1-1-1-3-5---1---------------------------------------|
B|---------------------------------3-----------------------------------------|
G|---------------------------------------------------------------------------|
D|---------------------------------------------------------------------------|
A|---------------------------------------------------------------------------|
E|---------------------------------------------------------------------------|
Then I was young and unafraid. And dreams were made and used and wasted

e|-5-5-5-5-3-5-6-8---5-5-5-5-5-6-8---1---------------------------------------|
B|---------------------------------3-----------------------------------------|
G|---------------------------------------------------------------------------|
D|---------------------------------------------------------------------------|
A|---------------------------------------------------------------------------|
E|---------------------------------------------------------------------------|
There was no ransom to be paid. No song unsung, no wine untasted


[Eponine]

e|--------------------------------------6--6---------------------------------|
B|--------------------------------------------6--6---------------------------|
G|-----7--7----7--8--7--9--10--10----7--------------7--7---------------------|
D|--7-------------------------------------------------------8--8--10--8------|
A|---------------------------------------------------------------------------|
E|---------------------------------------------------------------------------|
And I know it's only in my mind. That I'm talking to myself and not to him

e|-----------------------------7----6----------------------------------------|
B|-----8--8----8--8--7--8--10----------10--8----7-----8--7-------------------|
G|-------------------------------------------------9-------------------------|
D|--8---------------------------------------------------------8--8--10--8----|
A|---------------------------------------------------------------------------|
E|---------------------------------------------------------------------------|
And although I know that he is blind. Still I say, there's a way for us


[Eponine]

e|------------------------------8-----------------------------------------------|
B|--------------------8------8-----10--8--------------------------8-------------|
G|------10--10----10-----10---------------10--------10--10----10-----10--7------|
D|--10------------------------------------------10--------------------------10--|
A|------------------------------------------------------------------------------|
E|------------------------------------------------------------------------------|
I love him, But when the night is over, He is gone. The river's just a river

e|--------------------------------------------------------------------------------------------|
B|--------------------------8--10------10--------11-10-------11-10-------11-10----------------|
G|------7--10----10--9--10---------10--------10--------12-10-------12-10-------12-10----------|
D|--10--------------------------------------------------------------------------------12--10--|
A|--------------------------------------------------------------------------------------------|
E|--------------------------------------------------------------------------------------------|
Without him, The world around me changes. The trees are bare and everywhere The streets are full of strangers


[Eponine]

e|------------------------------8---------------------------------7-6-6--6--7--8--8--|
B|--------------------8------8-----10--8--------10--10--10----10---------------------|
G|------10--10----10-----10---------------10-----------------------------------------|
D|--10-------------------------------------------------------------------------------|
A|-----------------------------------------------------------------------------------|
E|-----------------------------------------------------------------------------------|
I love him, But every day I'm learning. All my life, I've only been pretending

e|--------------------------------------------|
B|--------------------------8--10------10-----|
G|------7--10----10--9--10---------10---------|
D|--10----------------------------------------|
A|--------------------------------------------|
E|--------------------------------------------|
Without me, His world will go on turning


[Both]

e|----------------------------------------------------------------------------|
B|-----------------------------------11-10-------11-10-------11-10------------|
G|-------------------------------10--------12-10-------12-10-------12-10--17--|
D|----------------------------------------------------------------------------|
A|----------------------------------------------------------------------------|
E|----------------------------------------------------------------------------|
A world that's full of happiness, That I have never known


[Fantine]

e|-1-1-1-1-0-1-3-5---1-1-1-1-1-3-5---1---------------------------------------|
B|---------------------------------3-----------------------------------------|
G|---------------------------------------------------------------------------|
D|---------------------------------------------------------------------------|
A|---------------------------------------------------------------------------|
E|---------------------------------------------------------------------------|
And still I dream he'll come to me. That we will live the years together


[Both]

e|-5-5-5-5-3-5-6-8----|
B|--------------------|
G|--------------------|
D|--------------------|
A|--------------------|
E|--------------------|
So different now from what it seemed


[Fantine]

e|-7-7-7-7-5-5--------|
B|--------------------|
G|--------------------|
D|--------------------|
A|--------------------|
E|--------------------|
Now life has killed the dream


[Both]

e|--------------------------------|
B|--------------------------------|
G|--10--12--10--12--14(hold)------|
D|--------------------------------|
A|--------------------------------|
E|--------------------------------|
[Fantine]: ...I dreamed
[Eponine]: On my own
Suggest correction
Give kudos to tab author, rate the tab!
1 2 3 4 5
comments
print report bad tab
guest
You may want to rate the tab now too:
select rating
Wanna post a correction for this tab? Suggest correction