Oops, an error
Loading. Please wait.

Wenn Du Schläfst tab

523 views 12 this week
no commentswrite comment
1 2 3 4 5
x 3
add to favorites
×
Save as Personal and add changes to this tab that will be seen only by you. Learn more ›
×
You can save this tab as Personal to edit and correct it or add notes. All changes will be seen only by you. Learn more »
launch autoscroll
font size
0
reset
how to read this tab
guitar tuner
edit
Autoscroll
slow
fast
+/-
esc
set tempo
stop
[Intro]
e|---------------------------------------|----------------------------------|
B|------5-------8-------7---------12-----|------5-------8-------7-------7---|
G|----5---5---9---9---7---7----12----12--|----5---5---9---9---7---7---7---7-|
D|---------------------------------------|----------------------------------|
A|--3-------7-------5-------10-----------|--3-------7-------5-------5-------|
E|---------------------------------------|----------------------------------|

[Verse]
e|---------------------------------------|----------------------------------|
B|------5-------8-------7---------12-----|------5-------8-------7-------7---|
G|----5---5---9---9---7---7----12----12--|----5---5---9---9---7---7---7---7-|
D|---------------------------------------|----------------------------------|
A|--3-------7-------5-------10-----------|--3-------7-------5-------5-------|
E|---------------------------------------|----------------------------------|

e|---------------------------------------|----------------------------------|
B|------5-------8-------7---------12-----|------5-------7---------12--------|
G|----5---5---9---9---7---7----12----12--|----5---5---7---7----12----12-----|
D|---------------------------------------|----------------------------------|
A|--3-------7-------5-------10-----------|--3-------5-------10----------10--|
E|---------------------------------------|----------------------------------|

[Refrain + Bridge]
e|-----------------------------------|-----------------------------------|
B|------5-------7-------8-------8----|------5-------7-------8-------8----|
G|----5---5---7---7---9---9---9---9--|----5---5---7---7---9---9---9---9--|
D|-----------------------------------|-----------------------------------|
A|--3-------5-------7-------7--------|--3-------5-------7-------7--------|
E|-----------------------------------|-----------------------------------|

e|-----------------------------------|------------------------------------------|
B|------5-------7-------8-------8----|------5-------7---------12----------12----|
G|----5---5---7---7---9---9---9---9--|----5---5---7---7----12----12----12----12-|
D|-----------------------------------|------------------------------------------|
A|--3-------5-------7-------7--------|--3-------5-------10----------10----------|
E|-----------------------------------|------------------------------------------|

[Verse]
e|---------------------------------------|----------------------------------|
B|------5-------8-------7---------12-----|------5-------8-------7-------7---|
G|----5---5---9---9---7---7----12----12--|----5---5---9---9---7---7---7---7-|
D|---------------------------------------|----------------------------------|
A|--3-------7-------5-------10-----------|--3-------7-------5-------5-------|
E|---------------------------------------|----------------------------------|

e|---------------------------------------|----------------------------------|
B|------5-------8-------7---------12-----|------5-------7---------12--------|
G|----5---5---9---9---7---7----12----12--|----5---5---7---7----12----12-----|
D|---------------------------------------|----------------------------------|
A|--3-------7-------5-------10-----------|--3-------5-------10----------10--|
E|---------------------------------------|----------------------------------|

[Refrain + Bridge]
e|-----------------------------------|-----------------------------------|
B|------5-------7-------8-------8----|------5-------7-------8-------8----|
G|----5---5---7---7---9---9---9---9--|----5---5---7---7---9---9---9---9--|
D|-----------------------------------|-----------------------------------|
A|--3-------5-------7-------7--------|--3-------5-------7-------7--------|
E|-----------------------------------|-----------------------------------|

e|-----------------------------------|------------------------------------------|
B|------5-------7-------8-------8----|------5-------7---------12----------12----|
G|----5---5---7---7---9---9---9---9--|----5---5---7---7----12----12----12----12-|
D|-----------------------------------|------------------------------------------|
A|--3-------5-------7-------7--------|--3-------5-------10----------10----------|
E|-----------------------------------|------------------------------------------|

[Verse 1]
C          Em                    D        C         Em                D
Der Morgen schiebt sich vor mein Fenster, unten der Kiosk macht schon auf.
C           Em                   D       C           D                G 
Und während du hier schläfst und atmest, stellen sie die Aschenbecher raus.
C        Em              D                                 C          Em              D 
3 kurze Stunden und 12 Minuten liegt dein Kopf schon hier, auf meinem eingeschlafenen Arm. 
C         Em               D                              C            D         G
Der ganze Rest von mir ist wach, weil ich die ganze Nacht dich wie ein Vollidiot anstarr.

[Chorus]
            C        D             Em              C     D             Em
Und wenn du schläfst muss ich dich ansehen, um den Moment, wenn du die Augen aufschlägst,
C        D              Em 
nicht zu verpassen, hundemüde, kanns nicht lassen. 
        C              D          G
Nur aus Angst, dass du irgendwann gehst.

[Bridge]
C         D       Em   C         D       Em   C         D       Em
Dedumdedumdumdumdedum, dedumdedumdumdumdedum, dedumdedumdumdumdedum.
        C              D          G
Nur aus Angst, dass du irgendwann gehst.

[Verse 2]
C        Em              D        C         Em           D
Ich überlass den Tag den anderen, mach alle Fensterläden zu. 
C              Em                    D       C          D              G
Und vielleicht bleibt die Nacht noch länger, wenn ich so leise bin wie du. 
C              Em               D                             C         Em             D
Wie stell ichs an, dass du für immer in meinem Leben bleibst, zumindest bis der Kiosk schließt? 
C          Em              D                          C    D                G
Bin ich so müde, dass mein Kopf gerade Unsinn treibt, oder hab ich mich verliebt?

[Chorus]
            C        D             Em              C     D             Em
Und wenn du schläfst muss ich dich ansehen, um den Moment, wenn du die Augen aufschlägst,
C        D              Em 
nicht zu verpassen, hundemüde, kanns nicht lassen. 
        C              D          G
Nur aus Angst, dass du irgendwann gehst.

[Bridge]
C         D       Em   C         D       Em   C         D       Em
Dedumdedumdumdumdedum, dedumdedumdumdumdedum, dedumdedumdumdumdedum.
        C              D          G
Nur aus Angst, dass du irgendwann gehst.
            C        D             Em              C     D             Em
Und wenn du schläfst muss ich dich ansehen, um den Moment, wenn du die Augen aufschlägst,
C        D              Em 
nicht zu verpassen, hundemüde, kanns nicht lassen. 
        C              D          G
Nur aus Angst, dass du irgendwann gehst.

            
            
Suggest correction
Creating personal tab
Creating personal tab
You can edit any tab online and save it as your Personal.

You can edit, replace or remove any tab part or add personal notes – all changes will be seen only by you.

Personal tabs can be accessed anytime from any device, even offline.
Learn more »
Give kudos to tab author, rate the tab!
1 2 3 4 5
comments
print report bad tab
guest
You may want to rate the tab now too:
select rating
Wanna post a correction for this tab? Suggest correction