Oops, an error
Loading. Please wait.

Adaletin Bumu Dünya chords

421 views 6 this week
no commentswrite comment
1 2 3 4 5
3 more votes to show rating
add to favorites
×
Save as Personal and add changes to this tab that will be seen only by you. Learn more ›
×
You can save this tab as Personal to edit and correct it or add notes. All changes will be seen only by you. Learn more »
launch autoscroll
font size
0
reset
transpose
0
reset
display chords
guitar tuner
edit
Autoscroll
slow
fast
+/-
esc
set tempo
stop
Author
Difficulty
Strumming Are these strumming patterns correct? Yes No
Verse & Intro 85 bpm
1
 
&
 
2
 
&
 
3
 
&
 
4
 
&
 
Listen
Chorus 85 bpm
1
2
3
4
Listen
Tempo - 85bpm

[Intro]
  Dm                    Gm                    Gm                    F
E|----5--5--5-----6--5--5--3--5--3--------3--|----3--3--3-----5--3--------3-------------------|
B|-------------------------------------6-----|----------------------6--5-----6-----5--6-------|
G|-------------------------------------------|------------------------------------------------|
D|-------------------------------------------|------------------------------------------------|
A|-------------------------------------------|------------------------------------------------|
E|-------------------------------------------|------------------------------------------------|

  F                     Eb                    Eb                    Dm
E|----------------3--------------------------|-------------------------------------------|-------|
B|----6--6--6--------6--4--3--6--4-----4--4--|----4--4--4-----6--4--4--3--4--4-----3--4--|--3----|
G|-------------------------------------------|-------------------------------------------|-------|
D|-------------------------------------------|-------------------------------------------|-------|
A|-------------------------------------------|-------------------------------------------|-------|
E|-------------------------------------------|-------------------------------------------|-------|

[Verse]    
Dm                  C     Dm
Güvenemem servetime malıma 
Dm                   C     Dm
Ümidim yok bugün ile yarına 
F
Toprak beni de basacak bağrına

[Chorus]
F       Gm
Adaletin bu mu dünya 
Gm            Dm
Ne yar verdin ne mal dünya 
F        Eb
Kötülerinsin sen dünya 
Eb      Dm
İyileri öldüren dünya
Dm       Gm
Adaletin bu mu dünya 
Gm            F
Ne yar verdin ne mal dünya 
F        Eb
Kötülerinsin sen dünya 
Eb      Dm
İyileri öldüren dünya

[Instrumental]
Dm Gm F Eb Dm

  Dm                    Gm                    Gm                    F
E|----5--5--5-----6--5--5--3--5--3--------3--|----3--3--3-----5--3--------3-------------------|
B|-------------------------------------6-----|----------------------6--5-----6-----5--6-------|
G|-------------------------------------------|------------------------------------------------|
D|-------------------------------------------|------------------------------------------------|
A|-------------------------------------------|------------------------------------------------|
E|-------------------------------------------|------------------------------------------------|

  F                     Eb                    Eb                    Dm
E|----------------3--------------------------|-------------------------------------------|-------|
B|----6--6--6--------6--4--3--6--4-----4--4--|----4--4--4-----6--4--4--3--4--4-----3--4--|--3----|
G|-------------------------------------------|-------------------------------------------|-------|
D|-------------------------------------------|-------------------------------------------|-------|
A|-------------------------------------------|-------------------------------------------|-------|
E|-------------------------------------------|-------------------------------------------|-------|

[Verse 2]
Dm                      C       Dm
Ne insanlar gelip geçti kapından 
Dm                        C       Dm
Memnun gelip giden var mı yolundan 
F
Kimi fakir kimi ayrılmış yarinden

[Chorus 2]
F       Gm
Adaletin bu mu dünya 
Gm            Dm
Ne yar verdin ne mal dünya 
F        Eb
Kötülerinsin sen dünya 
Eb      Dm
İyileri öldüren dünya
Dm       Gm
Adaletin bu mu dünya 
Gm            F
Ne yar verdin ne mal dünya 
F        Eb
Kötülerinsin sen dünya 
Eb      Dm
İyileri öldüren dünya
 
[Instrumental]
Dm Gm F Eb Dm

  Dm                    Gm                    Gm                    F
E|----5--5--5-----6--5--5--3--5--3--------3--|----3--3--3-----5--3--------3-------------------|
B|-------------------------------------6-----|----------------------6--5-----6-----5--6-------|
G|-------------------------------------------|------------------------------------------------|
D|-------------------------------------------|------------------------------------------------|
A|-------------------------------------------|------------------------------------------------|
E|-------------------------------------------|------------------------------------------------|

  F                     Eb                    Eb                    Dm
E|----------------3--------------------------|-------------------------------------------|-------|
B|----6--6--6--------6--4--3--6--4-----4--4--|----4--4--4-----6--4--4--3--4--4-----3--4--|--3----|
G|-------------------------------------------|-------------------------------------------|-------|
D|-------------------------------------------|-------------------------------------------|-------|
A|-------------------------------------------|-------------------------------------------|-------|
E|-------------------------------------------|-------------------------------------------|-------|

[Verse 3]
Dm                     C      Dm
Kimi Mecnun gibi dağda dolaşır 
Dm                      C      Dm
Kimisi de ölüm yok gibi çalışır 
F
Kimi meteliksiz kimi milyona karışır

[Chorus 3]
F       Gm
Adaletin bu mu dünya 
Gm            Dm
Ne yar verdin ne mal dünya 
F        Eb
Kötülerinsin sen dünya 
Eb      Dm
İyileri öldüren dünya
Dm       Gm
Adaletin bu mu dünya 
Gm            F
Ne yar verdin ne mal dünya 
F        Eb
Kötülerinsin sen dünya 
Eb      Dm
İyileri öldüren dünya

[Outro]
Dm Gm F Eb Dm

  Dm                    Gm                    Gm                    F
E|----5--5--5-----6--5--5--3--5--3--------3--|----3--3--3-----5--3--------3-------------------|
B|-------------------------------------6-----|----------------------6--5-----6-----5--6-------|
G|-------------------------------------------|------------------------------------------------|
D|-------------------------------------------|------------------------------------------------|
A|-------------------------------------------|------------------------------------------------|
E|-------------------------------------------|------------------------------------------------|

  F                     Eb                    Eb                    Dm
E|----------------3--------------------------|-------------------------------------------|-------|
B|----6--6--6--------6--4--3--6--4-----4--4--|----4--4--4-----6--4--4--3--4--4-----3--4--|--3----|
G|-------------------------------------------|-------------------------------------------|-------|
D|-------------------------------------------|-------------------------------------------|-------|
A|-------------------------------------------|-------------------------------------------|-------|
E|-------------------------------------------|-------------------------------------------|-------|

            
            
Suggest correction
Creating personal tab
Creating personal tab
You can edit any tab online and save it as your Personal.

You can edit, replace or remove any tab part or add personal notes – all changes will be seen only by you.

Personal tabs can be accessed anytime from any device, even offline.
Learn more »
Give kudos to tab author, rate the tab!
1 2 3 4 5
comments
print report bad tab
guest
You may want to rate the tab now too:
select rating
Wanna post a correction for this tab? Suggest correction