Oops, an error
Loading. Please wait.

Die Nacht Übertreibt chords

277 views 3 this week
no commentswrite comment
1 2 3 4 5
x 3
add to favorites
×
Save as Personal and add changes to this tab that will be seen only by you. Learn more ›
×
You can save this tab as Personal to edit and correct it or add notes. All changes will be seen only by you. Learn more »
launch autoscroll
font size
0
reset
transpose
0
reset
simplify chords
display chords
guitar tuner
edit
Autoscroll
slow
fast
+/-
esc
set tempo
stop
Strumming
There is no strumming pattern for this song yet. and get +5 IQ
Die Nacht übertreibt
Die Höchste Eisenbahn

Capo 6

C/G       x32013
Am7       x02213
Dsus2/F#  2x0230

[Intro]
C  Am
C  Am

Intro riff 
    C                      Am
e ----------0---------0------------------------
b ----1-1h3-------1h3---3----1-0h1-----1-0-----
g ------------------------------------------0--  2x
D ---------------------------------------------
A --3----------3-----------0---------0------3--
E ---------------------------------------------

[Verse 1]
    C/G
Wir schrein' durch die Nacht
        F
und ein Laster rauscht laut
          Am
durch den Kreisel am Platz,
              F
wo's dich vor Freude hinhaut.
    C           C/B
Ein Laster, ein Laster,
    Am          Am/G      Dsus2/F#
ein Zug und ein Zug.


[Verse 2]
          C/G
Durch den Lärm und die Schwärze
        F
und das gelbliche Licht
             Am                      F
sagst du mir leise "ich lieb' dich"
N.C.
und ich hör' dich nicht.


[Chorus 1]
         Am
Du verschlingst mich,
                  Am7
ich fühl' nichts, tut mir Leid,
          Em7            F
irgendwas stimmt nicht.
N.C.                
Die Nacht übertreibt.

[Solo]
C   Am
C   Am

e ----------0---------0------------------------
b ----1-1h3-------1h3---3----1-0h1-----1-0-----
g ------------------------------------------0--  2x
D ---------------------------------------------
A --3----------3-----------0---------0------3--
E ---------------------------------------------


[Verse 3]
   C/G
Im Kopf ist Chaos,
          F   
da steht, was es ist,
      Am 
in verschiedenen Sprachen,
       F
die du alle nicht sprichst
       C        C/B  Am  Am/G     Dsus2/F# 
und du stolperst              im Flur.


[Verse 4]
           C/G 
Da ist ein stechender Schmerz,
        F 
da sind rote Schlieren,
        Am                   F
ist dir egal, du fühlst dich eh ramponiert
       C     C/B  Am  Am/G           Dsus2/F# 
und du lachst              noch im Bett.


[Chorus 2]
         Am
Und dann weinst du, erwachst
       Am7
und es tut mir auch Leid,
              Em7                   F
aber du weißt selbst nicht, warum
N.C.
die Nacht übertreibt.

[Solo]
C   Am
C   Am
C   Am
C   Am
Am  G/B  C  F

e ----------0---------0------------------------
b ----1-1h3-------1h3---3----1-0h1-----1-0-----
g ------------------------------------------0--  4x
D ---------------------------------------------
A --3----------3-----------0---------0------3--
E ---------------------------------------------

[Outro]
Am               G/B      
   Wir haben uns wieder getroffen,
C               F
   du hingst an jemandem dran
Am           G/B       
   dem man so gern glauben möchte,
C                  F
   weil er einfach so gut reden kann.
Am            G/B
   Ich hab' bereut, dass ich immer schon
C            F
   so viel Misstrauen in mir trag'.
Am           G/B
   Ist doch schön eigentlich,
         C
was wir tun nachts, was uns
F
 alle so glücklich macht.
Am  G/B   C     F 
            Übertreibt 
Am  G/B   C     F 
            Übertreibt 
Am  G/B   C     F 
            Übertreibt 
Am  G/B   C     F

            
            
Suggest correction
Creating personal tab
Creating personal tab
You can edit any tab online and save it as your Personal.

You can edit, replace or remove any tab part or add personal notes – all changes will be seen only by you.

Personal tabs can be accessed anytime from any device, even offline.
Learn more »
Give kudos to tab author, rate the tab!
1 2 3 4 5
comments
print report bad tab
guest
You may want to rate the tab now too:
select rating
Wanna post a correction for this tab? Suggest correction