Oops, an error
Loading. Please wait.

Ne Volim Januar chords

136 views 1 this week
no commentswrite comment
1 2 3 4 5
3 more votes to show rating
add to favorites
×
Save as Personal and add changes to this tab that will be seen only by you. Learn more ›
×
You can save this tab as Personal to edit and correct it or add notes. All changes will be seen only by you. Learn more »
launch autoscroll
font size
0
reset
transpose
0
reset
display chords
guitar tuner
edit
Autoscroll
slow
fast
+/-
esc
set tempo
stop
Author
Difficulty
Strumming
There is no strumming pattern for this song yet. and get +5 IQ
-------------------------------------------------------------------------------
                    Đorđe Balašević – Ne volim januar
-------------------------------------------------------------------------------
Tabbed by: Stefan Premović

Tuning: Standard

[Intro]
             F#                                Hm
e|-2-3-2-0---2---------------------|-0-2-0-----2---------------------|
B|---------3-2-------------2-------|-------3-2-3-----------2-3-------|
G|-----------3-------3---4---------|-----------4---3---4-------------|
D|-----------4---4-----------------|-----------4---------------------|
A|-----------4---------------------|-----------2---------------------|
E|-----------2---------------------|---------------------------------|

             F#                                Hm
e|-2-3-2-0---2---------------------|-----------7-------7-9-10-12-14-----|
B|---------3-2-------------2-------|-----------7------------------------|
G|-----------3-------3---4-------9-|---7-----6-7------------------------|
D|-----------4---4-----------------|-----------9------------------------|
A|-----------4---------------------|------------------------------------|
E|-----------2---------------------|------------------------------------|


[Verse 1]                
             F#                     Hm        
   Ne volim januar ni bele zimske vragove.
              D A              D    
   U svakom snegu vidim iste tragove,
            Em                 Hm  
   Tragove malih stopa, broj trideset i ko zna,
G          F#       Hm
   Kako polako odlaze.


[Verse 2]
             F#                 Hm
   Vise ne prolazim ulicom Dositejevom
            D  A              D
   I nemam pojma kad neko pita gde je to.
               Em                  Hm
   Tih dvesta sest koraka duzinom tog sokaka
G            F#        Hm
   Nikad ja nisam brojao.
 

[Chorus] 
D                  A
   Nisam te nikad cuvao,
F#                  Hm      
   Nisam te nikada mazio, pazio.
D                    A
   Tvoju sam ljubav gazio,
F#                  Hm   
   Svemu smisljao broj.
    
D                   A      
   Nisam te nikad stedeo
F#                Hm
   I nisam umeo stati ni ostati.
D                  A
   Sta ce od mene postati,
F#               Hm  
   Mali andjele moj?

|-7-9-10-12---14-----|
|--------------------|
|--------------------|
|--------------------|
|--------------------|
|--------------------|

             F#                                Hm
e|-2-3-2-0---2---------------------|-0-2-0-----2---------------------|
B|---------3-2-------------2-------|-------3-2-3-----------2-3-------|
G|-----------3-------3---4---------|-----------4---3---4-------------|
D|-----------4---4-----------------|-----------4---------------------|
A|-----------4---------------------|-----------2---------------------|
E|-----------2---------------------|---------------------------------|

             F#                                Hm
e|-2-3-2-0---2---------------------|-----------7-------7-9-10-12-14-----|
B|---------3-2-------------2-------|-----------7---7-9------------------|
G|-----------3-------3---4-------9-|---7-----6-7------------------------|
D|-----------4---4-----------------|-----------9------------------------|
A|-----------4---------------------|------------------------------------|
E|-----------2---------------------|------------------------------------|


[Verse 3]
              F#                    Hm
   Ne gledam filmove iz ranih sedamdesetih,
             D A              D
   Dosta je suza i rastanaka nesretnih.
               Em                 Hm
   Ko takve stvari snima? Bas cudnog sveta ima,
    G       F#         Hm
   Tako se lako rasplacu.


[Chorus] 
D                  A
   Nisam te nikad cuvao,
F#                  Hm      
   Nisam te nikada mazio, pazio.
D                    A
   Tvoju sam ljubav gazio,
F#                  Hm   
   Svemu smisljao broj.
    
D                   A      
   Nisam te nikad stedeo
F#                Hm
   I nisam umeo stati ni ostati.
D                  A
   Sta ce od mene postati,
F#               Hm  
   Mali andjele moj?

F#        Hm
F#        Hm
Em        Hm
F#        Hm

F#        Hm
F#        Hm
Em        Hm
F#        Hm    Em    Hm


            
            
Suggest correction
Creating personal tab
Creating personal tab
You can edit any tab online and save it as your Personal.

You can edit, replace or remove any tab part or add personal notes – all changes will be seen only by you.

Personal tabs can be accessed anytime from any device, even offline.
Learn more »
Give kudos to tab author, rate the tab!
1 2 3 4 5
comments
print report bad tab
guest
You may want to rate the tab now too:
select rating
Wanna post a correction for this tab? Suggest correction