Oops, an error
Loading. Please wait.

Fire Of Unknown Origin bass

487 views 6 this week
no commentswrite comment
1 2 3 4 5
2 more votes to show rating
add to favorites
×
Save as Personal and add changes to this tab that will be seen only by you. Learn more ›
×
You can save this tab as Personal to edit and correct it or add notes. All changes will be seen only by you. Learn more »
launch autoscroll
font size
0
reset
guitar tuner
edit
Autoscroll
slow
fast
+/-
esc
set tempo
stop
Author
Difficulty
Intro :
G|---------------------------------|---------------------------------|
D|---------------------------------|---------------------------------|
A|7--------------------------------|5--------------------------------|
E|---------------------------------|---------------------------------|

G|---------------------------------|---------------------------------|
D|---------------------------------|---------------------------------|
A|4--------------------------------|3--------------------------------|
E|---------------------------------|---------------------------------|

G|---------------------------------|---------------------------------|
D|---------------------------------|---------------------------------|
A|---------------------------------|----2-------2-------2-------2----|
E|---------------------------------|0-------3-------0-------3--------|

G|---------------------------------|---------------------------------|
D|---------------------------------|---------------------------------|
A|----2-------2-------2-------2----|----2-------2-------2-------2----|
E|0-------3-------0-------3--------|0-------3-------0-------3--------|

G|---------------------------------|
D|---------------------------------|
A|----2-------2-------5-------5----|
E|0-------3-------0-------3--------|

Verse 1 :
G|---------------------------------|---------------------------------|
D|---------------------------------|---------------------------------|
A|----2-------2-------2-------2----|----2-------2-------2-------2----|
E|0-------3-------0-------3--------|0-------3-------0-------3--------|

G|---------------------------------|---------------------------------|
D|---------------------------------|---------------------------------|
A|----2-------2-------2-------2----|----2-------2-------5-------5----|
E|0-------3-------0-------3--------|0-------3-------0-------3--------|

G|---------------------------------|---------------------------------|
D|---------------------------------|---------------------------------|
A|---------------------------------|---------------------------------|
E|----5---3---5-------5---3---5----|----5---3---5-------5---3---5----|

G|---------------------------------|
D|---------------------------------|
A|---------------------------------|
E|----5---3---5-------5---3---2----|

G|---------------------------------|---------------------------------|
D|---------------------------------|---------------------------------|
A|----2-------2-------2-------2----|----2-------2-------2-------2----|
E|0-------3-------0-------3--------|0-------3-------0-------3--------|

G|---------------------------------|---------------------------------|
D|---------------------------------|---------------------------------|
A|----2-------2-------2-------2----|----2-------2-------5-------5----|
E|0-------3-------0-------3--------|0-------3-------0-------3--------|

G|---------------------------------|---------------------------------|
D|---------------------------------|---------------------------------|
A|---------------------------------|---------------------------------|
E|----5---3---5-------5---3---5----|----5---3---5-------5---3---5----|

G|---------------------------------|---------------------------------|
D|---------------------------------|---------------------------------|
A|---------------------------------|---------------------------------|
E|----5---3---5-------5---3---5----|----5---3---5-------5---3---5----|

Chorus :
G|----------------4----------------|---------------------------------|
D|------------4-----------4--------|----------------7----------------|
A|2--------------------------------|0-----------7--------------------|
E|---------------------------------|------------------------5---4----|

G|---------------------------------|---------------------------------|
D|----------------5----------------|----------------4----------------|
A|------------5-----------5--------|------------4-----------4--------|
E|3--------------------------------|2--------------------------------|

G|----------------9----------------|----------------7----------------|
D|------------9-------9------------|------------7-------7------------|
A|7-----------------------7---\----|5-----------------------5--------|
E|---------------------------------|---------------------------------|

G|----------------6----------------|----------------5-------5--------|
D|------------5-------5------------|------------5-------5------------|
A|4-----------------------4--------|3--------------------------------|
E|---------------------------------|---------------------------------|

G|----------------5-------5---\----|
D|------------5-------5------------|
A|3--------------------------------|
E|---------------------------------|

Interlude :
G|---------------------------------|---------------------------------|
D|---------------------------------|---------------------------------|
A|----2-------2-------2-------2----|----2-------2-------2-------2----|
E|0-------3-------0-------3--------|0-------3-------0-------3--------|

G|---------------------------------|---------------------------------|
D|---------------------------------|---------------------------------|
A|----2-------2-------2-------2----|----2-------2-------5-------4----|
E|0-------3-------0-------3--------|0-------3-------0-------3--------|

Verse 2 :
G|---------------------------------|---------------------------------|
D|---------------------------------|---------------------------------|
A|----2-------2-------2-------2----|----2-------2-------2-------2----|
E|0-------3-------0-------3--------|0-------3-------0-------3--------|

G|---------------------------------|---------------------------------|
D|---------------------------------|---------------------------------|
A|----2-------2-------2-------2----|----2-------2-------5-------4----|
E|0-------3-------0-------3--------|0-------3-------0-------3--------|

G|---------------------------------|---------------------------------|
D|7--------------------------------|---------------------------------|
A|---------------------------------|---------------------------------|
E|----5---3---5-------5---3---5----|----5---3---5-------5---3---5----|

G|---------------------------------|---------------------------------|
D|---------------------------------|---------------------------------|
A|---------------------------------|----2-------2-------2-------2----|
E|----5---3---5-------5---3---2----|0-------3-------0-------3--------|

G|---------------------------------|---------------------------------|
D|---------------------------------|---------------------------------|
A|----2-------2-------2-------2----|----2-------2-------2-------2----|
E|0-------3-------0-------3--------|0-------3-------0-------3--------|

G|---------------------------------|---------------------------------|
D|---------------------------------|---------------------------------|
A|----2-------2-------2-------2----|---------------------------------|
E|0-------3-------0-------3--------|5---5---3---5-------5---3---5----|

G|---------------------------------|---------------------------------|
D|---------------------------------|---------------------------------|
A|---------------------------------|---------------------------------|
E|----5---3---5-------5---3---5----|----5---3---5-------5---3---5----|

G|---------------------------------|
D|---------------------------------|
A|---------------------------------|
E|----5---3---5-------5---3---5----|

Chorus :
G|----------------4----------------|---------------------------------|
D|------------4-----------4--------|----------------7----------------|
A|2--------------------------------|0-----------7--------------------|
E|---------------------------------|------------------------5---4----|

G|---------------------------------|---------------------------------|
D|----------------5----------------|----------------4----------------|
A|------------5--------------------|------------4--------------------|
E|3-----------------------3--------|2-----------------------2--------|

G|----------------9----------------|----------------7----------------|
D|------------9-------9------------|------------7-------7------------|
A|7-----------------------7---\----|5-----------------------5--------|
E|---------------------------------|---------------------------------|

G|----------------6----------------|---------------------------------|
D|------------5--------------------|---------------------------------|
A|4--------------------------------|3--------------------------------|
E|---------------------------------|---------------------------------|

Solo :
G|---------------------------------|---------------------------------|
D|---------------------------------|---------------------------------|
A|---------------------------------|4--------------------------------|
E|2--------------------------------|---------------------------------|

G|---------------------------------|---------------------------------|
D|4--------------------------------|---------------------------------|
A|---------------------------------|4--------------------------------|
E|---------------------------------|---------------------------------|

G|---------------------------------|---------------------------------|
D|4---------------------------/----|9--------------------------------|
A|---------------------------------|---------------------------------|
E|---------------------------------|---------------------------------|

G|---------------------------------|---------------------------------|
D|7--------------------------------|5--------------------------------|
A|---------------------------------|---------------------------------|
E|---------------------------------|---------------------------------|

G|---------------------------------|---------------------------------|
D|4--------------------------------|---------------------------------|
A|---------------------------------|7--------------------------------|
E|---------------------------------|---------------------------------|

G|---------------------------------|---------------------------------|
D|---------------------------------|---------------------------------|
A|5--------------------------------|4--------------------------------|
E|---------------------------------|---------------------------------|

G|---------------------------------|---------------------------------|
D|4---------------------------/----|9--------------------------------|
A|---------------------------------|---------------------------------|
E|---------------------------------|---------------------------------|

G|---------------------------------|---------------------------------|
D|7--------------------------------|5--------------------------------|
A|---------------------------------|---------------------------------|
E|---------------------------------|---------------------------------|

G|---------------------------------|---------------------------------|
D|4--------------------------------|---------------------------------|
A|---------------------------------|7--------------------------------|
E|---------------------------------|---------------------------------|

G|---------------------------------|---------------------------------|
D|---------------------------------|---------------------------------|
A|5--------------------------------|4--------------------------------|
E|---------------------------------|---------------------------------|

G|---------------------------------|---------------------------------|
D|---------------------------------|---------------------------------|
A|3--------------------------------|---------------------------------|
E|---------------------------------|---------------------------------|

Interlude :
G|---------------------------------|---------------------------------|
D|---------------------------------|---------------------------------|
A|----2-------2-------2-------2----|----2-------2-------2-------2----|
E|0-------3-------0-------3--------|0-------3-------0-------3--------|

G|---------------------------------|---------------------------------|
D|---------------------------------|---------------------------------|
A|----2-------2-------2-------2----|----2-------2-------5-------4----|
E|0-------3-------0-------3--------|0-------3-------0-------3--------|

Verse 3 :
G|---------------------------------|---------------------------------|
D|---------------------------------|---------------------------------|
A|----2-------2-------2-------2----|----2-------2-------2-------2----|
E|0-------3-------0-------3--------|0-------3-------0-------3--------|

G|---------------------------------|---------------------------------|
D|---------------------------------|---------------------------------|
A|----2-------2-------2-------2----|----2-------2-------5-------4----|
E|0-------3-------0-------3--------|0-------3-------0-------3--------|

G|---------------------------------|---------------------------------|
D|---------------------------------|---------------------------------|
A|---------------------------------|---------------------------------|
E|5---5---3---5-------5---3---5----|----5---3---5-------5---3---5----|

G|---------------------------------|---------------------------------|
D|---------------------------------|---------------------------------|
A|---------------------------------|----2-------2-------2-------2----|
E|----5---3---5-------5---3---2----|0-------3-------0-------3--------|

G|---------------------------------|---------------------------------|
D|---------------------------------|---------------------------------|
A|----2-------2-------2-------2----|----2-------2-------2-------2----|
E|0-------3-------0-------3--------|0-------3-------0-------3--------|

G|---------------------------------|---------------------------------|
D|---------------------------------|---------------------------------|
A|----2-------2-------2-------2----|---------------------------------|
E|0-------3-------0-------3--------|----5---3---5-------5---3---5----|

G|---------------------------------|---------------------------------|
D|---------------------------------|---------------------------------|
A|---------------------------------|---------------------------------|
E|----5---3---5-------5---3---5----|----5---3---5-------5---3---5----|

G|---------------------------------|
D|---------------------------------|
A|---------------------------------|
E|----5---3---5-------5---3---5----|

Chorus :
G|----------------4----------------|---------------------------------|
D|------------4-----------4--------|----------------7----------------|
A|2--------------------------------|0-----------7--------------------|
E|---------------------------------|------------------------5---4----|

G|---------------------------------|---------------------------------|
D|----------------5----------------|----------------4----------------|
A|------------5--------------------|------------4--------------------|
E|3-----------------------3--------|2-----------------------2--------|

G|----------------9----------------|----------------7----------------|
D|------------9-------9------------|------------7-------7------------|
A|7-----------------------7---\----|5-----------------------5--------|
E|---------------------------------|---------------------------------|

G|----------------6----------------|----------------6----------------|
D|------------5-----------5--------|------------5-----------5--------|
A|4--------------------------------|4--------------------------------|
E|---------------------------------|---------------------------------|

G|----------------5-------5--------|---------------------------------|
D|------------5-------5------------|---------------------------------|
A|3--------------------------------|3--------------------------------|
E|---------------------------------|---------------------------------|

Outro (repeat) :
G|---------------------------------|---------------------------------|
D|---------------------------------|---------------------------------|
A|----2-------2-------2-------2----|----2-------2-------2-------2----|
E|0-------3-------0-------3--------|0-------3-------0-------3--------|

G|---------------------------------|---------------------------------|
D|---------------------------------|---------------------------------|
A|----2-------2-------2-------2----|----2-------2-------5-------4----|
E|0-------3-------0-------3--------|0-------3-------0-------3--------|

***********************************

/ = slide up
\ = slide down

***********************************

            
            
Suggest correction
Creating personal tab
Creating personal tab
You can edit any tab online and save it as your Personal.

You can edit, replace or remove any tab part or add personal notes – all changes will be seen only by you.

Personal tabs can be accessed anytime from any device, even offline.
Learn more »
Give kudos to tab author, rate the tab!
1 2 3 4 5
comments
print report bad tab
guest
You may want to rate the tab now too:
select rating
Wanna post a correction for this tab? Suggest correction