Oops, an error
Loading. Please wait.

Calle Luna Calle Sol tab

46 views 1 this week
no commentswrite comment
1 2 3 4 5
3 more votes to show rating
add to favorites
×
Save as Personal and add changes to this tab that will be seen only by you. Learn more ›
×
You can save this tab as Personal to edit and correct it or add notes. All changes will be seen only by you. Learn more »
launch autoscroll
font size
0
reset
how to read this tab
guitar tuner
edit
Autoscroll
slow
fast
+/-
esc
set tempo
stop
Author
Difficulty
About this tab version
Voices of trombones and piano have been added and improved. Was this info helpful? Yes No
[Intro part A (piano)]
   Cm       Ab        G
e|----3--------4---------3---|  x4
B|----------4-----4---3------|
G|--5------------------------|
D|---------------------------| 
A|---------------------------|
E|---------------------------|
      >

[Intro part B (trombones)]
    Cm(Cm/B|Cm/Bb|Cm/A) Dm7b5   [piano]   Fm              Dm7b5 
e|----------------------[----3-------3-]--4-3-4---1-0-1-----------|
B|----------------------[4-6---6-4-6---]------------------4-3-4---|
G|--5-------------------------------------------------------------|
D|-----5---6----------------------------------------------------5-|
A|-------6---6---5------------------------------------------------|
E|-------------3--------------------------------------------------|
    >      >     >                        >           >         

   Am7b5                                    (Cm)
e|----------------------------------------------|
B|-------4-4--------4--------4-4-------4--------|
G|-----5----------5--------5---------5----------| 
D|---7--------5-7------5-7-------5-7------5-----|
A|-------------------------------------------3--|
E|----------------------------------------------|
     >          >        >         >         >

Repeat intro part A x4

[Intro part B' (trombones)]
    Cm(Cm/B|Cm/Bb|Cm/A) Dm7b5   [piano]      Fm              Dm7b5 
e|-----------------------[----3-3-4-3-----]--4-3-4---1-0-1------------|
B|-----------------------[4-6---------6-4-]------------------4-3-4----|
G|--5-----------------------------------------------------------------|
D|-----5---6-------------------------------------------------------5--|
A|-------6---6---5----------------------------------------------------|
E|-------------3------------------------------------------------------|
    >      >     >                           >           >      

   Am7b5                     G    Ab               
e|------------------------------------|
B|-------4-4--------4-----------------|
G|-----5----------5-------------------| 
D|---7--------5-7------5-7------------|
A|------------------------------------|
E|---------------------------3-3--4---|
     >          >        >   >    >

[Chorus]
       G#
Mete la mano en el bolsillo
       G          F#              Fm
saca y abre tu cuchillo y ten cuidao.
 D#                     D              C#           Cm
Pónganme oido: en este barrio a muchos guapos han matao.

      Fm    G      Cm*(arpeggio)
Calle Luna, calle Sol
      Fm    G      Cm
Calle Luna, calle Sol.

Cm* e|---------|
    B|---------|
    G|-------5-|
    D|-----5---|
    A|-3-6-----|
    E|---------|
             >

[Verse 1]
Cm      G            Bb        D#
Oiga señor si usted quiere su vida
    Cm       G       Bb       G# G
evitar es mejor o la tiene perdida.

[Chorus]
       G#
Mete la mano en el bolsillo
       G          F#              Fm
saca y abre tu cuchillo y ten cuidao, oye ten cuidao.
 D#                     D              C#           Cm
Pónganme oido: en este barrio a muchos guapos han matao.
y qué mucho hah matao.

      Fm    G      Cm
Calle Luna, calle Sol, a dónde?
      Fm    G      Cm
Calle Luna, calle Sol.

[Verse 2]
Cm      G           Bb         D#
Mire señora agarre bien su cartera,
 Cm            G     Bb                    G# G
no conoce este barrio aquí asaltan a cualquiera.

[Chorus]
       G#
Mete la mano en el bolsillo
       G          F#              Fm
saca y abre tu cuchillo y ten cuidao.
 D#                     D              C#           Cm
Pónganme oido: en este barrio a muchos guapos han matao.

      Fm    G      Cm
Calle Luna, calle Sol
      Fm    G      Cm
Calle Luna, calle Sol.

[Verse 3]
Cm                 G     Bb             D#
En los barrios de guapo no se vive tranquilo
 Cm             G    Bb                 G# G
mide bien tus palabras o no vales ni un kilo.

[Break part A (trombones)]
       Cm  Fm  G   Fm         Cm  Fm  G
e|--------------------------------------------|
B|--------------------------------------------|
G|--5-5-5-------------------------------------|
D|--5-5-5---3-6-5---3---6-5-3----5-3-6-5-5-5--| x4
A|--------6-------5-----------(3)-------------|
E|--------------------------------------------|
        >   >   >   >              >       >

[Break part B (piano and trombones)]
(G)         Cm          Bb       (G)Ab              G       (Cm)
e|--------------------------------------------------------7-8--|
B|---------------------------------------------6--9/10-10------|
G|--------------------------------------5-7---------------4-5--|
D|-2-3-4-5-----0-1-2-3------0-1---5-5-6--------3--5/6--6-------|
A|--------------------------------------3-5--------------------|
E|--------------------------------3-3-4------------------------|

 (Cm)         Fm G Cm         Fm G Cm
Eeeeh    eeeh eeeeeeeeh eeeh eeh...
Fm  G              Cm
Camina pa'lante no mires para el 'lao
  Fm   G      Cm
oye camina no mires pa' 'lao.
Fm  G              Cm
Camina pa'lante no mires para el 'lao
Fm  G       Cm
tú tiene un santo pero no eres babalao.
Fm  G              Cm
Camina pa'lante no mires para el 'lao
Fm G       Cm
y ten cuidao y ten cuidao.
Fm  G              Cm
Camina pa'lante no mires para el 'lao
    Fm  G      Cm
cuidao saca tu coco pelao.
Fm  G              Cm
Camina pa'lante no mires para el 'lao
   Fm     G       Cm
camina pa'lante babalao.
Fm  G              Cm
Camina pa'lante no mires para el 'lao
  Fm       G             Cm
saca los bolsillos, tú estás arrancao.
Fm  G              Cm
Camina pa'lante no mires para el 'lao
Fm      G                   Cm
dile que fuiste a la pela y pelao te han dejao.
Fm  G              Cm
Camina pa'lante no mires para el 'lao.

[Outro]
    Fm                      G 
    1   2   3   1   2   3   1   2   3   1   2   3 
e|--8---------------8-------10--------------10------|
B|--9---------------9-------12--------------12------|  x4
G|--10--10--9---8---10--11--12--12--11--10--12--11--|
D|--10--------------10------12--------------12------|
A|--8---8---7---6---8---9---10--10--9---8---10--9---|
E|--------------------------------------------------|


************************************

| (n) Ghost note
| >   Accented note
| /   Slide up

************************************

            
            
Suggest correction
Creating personal tab
Creating personal tab
You can edit any tab online and save it as your Personal.

You can edit, replace or remove any tab part or add personal notes – all changes will be seen only by you.

Personal tabs can be accessed anytime from any device, even offline.
Learn more »
Give kudos to tab author, rate the tab!
1 2 3 4 5
comments
print report bad tab
guest
You may want to rate the tab now too:
select rating
Wanna post a correction for this tab? Suggest correction