Oops, an error
Loading. Please wait.

Litalia Sta Bruciando chords

13 views 1 this week
no commentswrite comment
1 2 3 4 5
3 more votes to show rating
add to favorites
×
Save as Personal and add changes to this tab that will be seen only by you. Learn more ›
×
You can save this tab as Personal to edit and correct it or add notes. All changes will be seen only by you. Learn more »
launch autoscroll
font size
0
reset
transpose
0
reset
display chords
guitar tuner
edit
Autoscroll
slow
fast
+/-
esc
set tempo
stop
Author
Difficulty
Strumming
There is no strumming pattern for this song yet. and get +5 IQ
[Intro]
C#   (x4)

[Riff]
    C#        E         A       B
e|---------------------------------------|
B|---------------------------------------|
G|--6---8/9---6---8/9---6---8/9\8--4-----| (x4)
D|---------------------------------------|
A|--4---6/7---4---6/7---4---6/7\6--2-----|
E|---------------------------------------|

[Verse 1]
C#
C'è bisogno di disordine
C#
per cambiare questo stato di cose
     A                      B
dove siamo governati sempre da farabutti
     C#                         
dove la giustizzia non è mai uguale per tutti
A               B
voglio soltanto kaos

[Chorus]
               E                     B
La strada è in fiamme, la rabbia si diffonde
          A                    B
la gente chiama, la legge non risponde
         E                   B
c'è confusione la pula sta picchiando
          A                      B       pick-slide
lo stato affonda l'Italia sta bruciando (Uoohhh ohh)

[Riff]
    C#        E         A       B
e|---------------------------------------|
B|---------------------------------------|
G|--6---8/9---6---8/9---6---8/9\8--4-----| (x4)
D|---------------------------------------|
A|--4---6/7---4---6/7---4---6/7\6--2-----|
E|---------------------------------------|

[Verse 2]
C#
C'è bisogno di disordine
C#
stare in fila e fare il loro gioco
C#
la demograzia è al limite
C#
e una figa oggi vale il tuo voto
       A                           B
mentre gli indagati stanno in parlamento al sicuro
        C#                        
per i giovani non c'è lavoro non c'è futuro
A               B
voglio soltanto kaos

[Chorus]
               E                     B
La strada è in fiamme, la rabbia si diffonde
          A                    B
la gente chiama, la legge non risponde
         E                   B
c'è confusione la pula sta picchiando
          A                      B
lo stato affonda l'Italia sta bruciando (go!)

[Solo]
           E         B                  A         B
e|----------------------------------------------------------|    
B|----------------------------------------------------------|    
G|----------------------------------------------------------|  
D|-------7-6-------7-6--7p6-----------7-6-------7-6--7p6----|  X2 
A|---7h9-------7h9----------9-----7h9-------7h9----------9--|   
E|----------------------------------------------------------|   

e|-------------|
B|-------------|
G|-------------|
D|---7---------|
A|-----9p7--7--|
E|-------------|

[Outro]
e|-------------|
B|-------------|
G|-----9-------|  ottava suonata ripetutamente 
D|-------------|  per tutto l'Outro
A|-----7-------|
E|-------------|

     E   (A#) B   (A#) A   (A#) B
(D#) E   (A#) B   (A#) A   (A#) B    (A#) A    (D#)E\

************************************

| /  Slide up
| \  Slide down
| p  Pull-off
| h  Hammer-on

************************************

            
            
Suggest correction
Creating personal tab
Creating personal tab
You can edit any tab online and save it as your Personal.

You can edit, replace or remove any tab part or add personal notes – all changes will be seen only by you.

Personal tabs can be accessed anytime from any device, even offline.
Learn more »
Give kudos to tab author, rate the tab!
1 2 3 4 5
comments
print report bad tab
guest
You may want to rate the tab now too:
select rating
Wanna post a correction for this tab? Suggest correction