Oops, an error
Loading. Please wait.

Holiday In Spain solo tab

version 1
version 1

Solo

  • Playable with or without capo on 2.

Interactive

by BLØF
163 views 1 this week
1 commentread comment
1 2 3 4 5
1 last vote to show rating
add to favorites
×
Save as Personal and add changes to this tab that will be seen only by you. Learn more ›
×
You can save this tab as Personal to edit and correct it or add notes. All changes will be seen only by you. Learn more »
launch autoscroll
font size
0
reset
how to read this tab
guitar tuner
edit
Autoscroll
slow
fast
+/-
esc
set tempo
stop
Author
Difficulty
About this tab version
Playable with or without capo on 2. Was this info helpful? Yes No
[Solo]

e|---------------------------------------------------------------------------|
B|---------------------------------------------------------------------------|
G|-14--11~-14--11------------------------------------------------------------|
D|-----------------14--12--9--12--9--12--9--12/14--12--9--12--9--7-----------|
A|---------------------------------------------------------------------------|
E|---------------------------------------------------------------------------|

e|---------------------------------------------------------------------------|
B|----4-----4-----4--4\2-----------------------------------------------------|
G|-5-----5-----5-------------------------------------------------------------|
D|---------------------------------------------------------------------------|
A|---------------------------------------------------------------------------|
E|---------------------------------------------------------------------------|

If you're playing with capo on 2, you can choose to play the solo like this:

[Solo]

e|---------------------------------------------------------------------------|
B|---------------------------------------------------------------------------|
G|-14--11~-14--11------------------------------------------------------------|
D|-----------------14--12--9--12--9--12--9--12/14--12--9--12--9--7-----------|
A|---------------------------------------------------------------------------|
E|---------------------------------------------------------------------------|

e|---------------------------------------------------------------------------|
B|---------------------------------------------------------------------------|
G|-5--9--5-9--5--9--9\7------------------------------------------------------|
D|---------------------------------------------------------------------------|
A|---------------------------------------------------------------------------|
E|---------------------------------------------------------------------------|


Tabbed this by ear, sorry if there's any errors.

************************************
| ~   Vibrato
/ ~   Slide up
\ ~   Slide down
************************************

            
            
Suggest correction
Creating personal tab
Creating personal tab
You can edit any tab online and save it as your Personal.

You can edit, replace or remove any tab part or add personal notes – all changes will be seen only by you.

Personal tabs can be accessed anytime from any device, even offline.
Learn more »
Give kudos to tab author, rate the tab!
1 2 3 4 5
comments
print report bad tab
1 comment total.
0 reply
robin1232 32 Jul 28, 2017 03:49 PM

Not bad for a variation, but the original is a full octave higher.

guest
You may want to rate the tab now too:
select rating
Wanna post a correction for this tab? Suggest correction