Oops, an error
Loading. Please wait.

Love On Top Acoustic tab

version 2
version 2

Whole song

  • Acoustic rendition as performed by Emily C. Browni... Show more

Interactive

503 views 6 this week
no commentswrite comment
1 2 3 4 5
2 more votes to show rating
add to favorites
×
Save as Personal and add changes to this tab that will be seen only by you. Learn more ›
×
You can save this tab as Personal to edit and correct it or add notes. All changes will be seen only by you. Learn more »
launch autoscroll
font size
0
reset
how to read this tab
guitar tuner
edit
Autoscroll
slow
fast
+/-
esc
set tempo
stop
Author
Difficulty
About this tab version
Acoustic rendition as performed by Emily C. Browning (facebook video link included). This rendition has some jazzy alternative chords and very clever fingerings. Was this info helpful? Yes No
Love On Top (originally by Beyoncé) acoustic rendition, as performed by Emily C. Browning 
( https://www.facebook.com/emily.c.browning/videos/1143997892386416/ ).  

Note: A tab legend is located at the bottom of the tab.  Also, the chords labeled 
above each tab are ~~not the actual chord name~~, just the name of the basic "chord shape" that I use when I 
play -- this way helps me remember.

                                          [Verse]
       Am7 <--("chord shape")       *  *  *
       fret8  (not an actual chord)  fret9
e|------10-----------------------|--x--x--x-------------|
B|------8------------------------|--10-10-10------------|
G|------9------------------------|--9--9--9-------------|
D|------9------------------------|--10-10-10------------|
A|------x------------------------|--9--9--9-------------|
E|-----(8)-----------------------|--8--8--8-------------|
Honey, honey        I can see the stars all the way from

   Amaj7                    E       *      
   bar8                    bar4    bar3
e|-(x )-------------------|-4---------------------------|
B|-(10)-----8-------------|-4---------------------------|
G|-(9 )-----7h9-----------|-5---------------------------|
D|-(10)-----7-------------|-6-------0-------------------|
A|--8-----8---------------|-6-------5------/----10------|
E|-(8 )-------------------|-4-------3-------------------|
   here            Can you see the glow from the wi..

    E                                *
   bar8                             fret9
e|--8----------------------------|---x------------------|
B|--8----------------------------|---10-----------------|
G|--9----------------------------|---9------------------|
D|--10---------------------------|---10-----------------|
A|--10---------------------------|---9------------------|
E|--8----------------------------|---8------------------|
  ..indow pane?      I can feel the sun whenever you're 

   Amaj7                  E
   bar8                  bar1
e|--8-------------------|-1-----------------------------|
B|--10------------------|-1-----------------------------|
G|--9-------------------|-2-----------------------------|
D|--10------------------|-3-----------------------------|
A|--8-------------------|-3-----------------------------|
E|--8-------------------|-1-----------------------------|
   near   Every time you touch me I just melt away.  Now

   Am7                       E7/*        E
   bar5                      fret4      bar3
e|--5-----------------------|--0---------3--------------|
B|--6-----------------------|--0---------3--------------|
G|--5-----------------------|--4---------4--------------|
D|--7-----------------------|--0---------5--------------|
A|--5-----------------------|--5---------5--------------|
E|--5-----------------------|-(3)--------3--------------|
  every body asks me why I'm smiling out from ear to ea...

       Am7                           E7 
       bar7                         bar5  *
e|------7--------------------------|-5---(5)------------|
B|------8--------------------------|-5----6-------------|
G|------7--------------------------|-6----6-------------|
D|------9--------------------------|-5----5-------------|
A|------7--------------------------|-7----0-------------|
E|------7--------------------------|-5----5-------------|
  ......ar.....               But I know     ahw hoo-hoo

   Am7                                  E
   bar5                                bar3
e|--5---------------------------------|-3---------------|
B|--6---------------------------------|-3---------------|
G|--5---------------------------------|-4---------------|
D|--7---------------------------------|-5---------------|
A|--5---------------------------------|-5---------------|
E|--5---------------------------------|-3---------------|
   Nothing's perfect, but it's worth it after fighting through my 
   
  Am7/*                          A    A7    A7 
  bar7                          bar3  bar5  bar7
e|--7-------------------------|-(3)--(5)----7.----x-----|
B|--8-------------------------|-(5)--(6)----8.----x-----|
G|--7-------------------------|--5.---5.----7.----x-----|
D|--9-------------------------|--5.---7.----9.----x-----|
A|--7-------------------------|--3.---5.----7.----x-----|
E|--0-------------------------|--x----x----(0)----x-----|
   tears       And finally you   put  me   first    Baby it's


                                       [Chorus]
    E 
   bar8                                      *
e|--8--------------------------------------|-x--------------------------------------|
B|--8--------------------------------------|-10-------------------------------------|
G|--9--------------------------------------|-9--------------------------------------|
D|--10-------------------------------------|-10-------------------------------------|
A|--10-------------------------------------|-9--------------------------------------|
E|--8--------------------------------------|-8--------------------------------------|
   you.                    You're the one I  love.                   You're the one I 

   Amaj7
   bar8                                     bar10
e|--8--------------------------------------|----------------------------------------|
B|--10-------------------------------------|-10---10---10---------------------------|
G|--9--------------------------------------|-10---10---10---------------------------|
D|--10-------------------------------------|-10---10---10---------------------------|
A|--8--------------------------------------|-10---10-10-----------------------------|
E|--8--------------------------------------|----------------------------------------|
   need.              You're the only one I  see.                      Baby baby it's

    E                                    
   bar8                                      *
e|--8--------------------------------------|-x--------------------------------------|
B|--8--------------------------------------|-10-------------------------------------|
G|--9--------------------------------------|-9--------------------------------------|
D|--10-------------------------------------|-10-------------------------------------|
A|--10-------------------------------------|-9--------------------------------------|
E|--8--------------------------------------|-8--------------------------------------|
   youuu.    You're the one who gives your  all.    You're the one that I can always

   Amaj7                         Fm7                          E              *
   bar8                          bar10       *   *           bar4           bar3
e|--8----------------------------x---------|-10--\3-----------4---------------------|
B|--10---------------------------10--------|-10--\3-----------4---------------------|
G|--9----------------------------10--------|-10--\3-----------5---------------------|
D|--10---------------------------10--------|-10--\3-----------6--------------0------|
A|--8----------------------------12--------|-10--\3-----------6--------------5------|
E|--8----------------------------10--------|-10--\3-----------4--------------3------|
   call.    When I need you baby everything  stops.      Finally you put my love on 


                                        [Ending]
    E                                                  Amaj7            Am7 D7sus4/G
   bar8                   *                            bar8      
e|--8-------------------|-x---------------------------|-8-------------|--0-----3----|
B|--8-------------------|-10--------------------------|-10------------|--1-----1----|   
G|--9-------------------|-9---------------------------|-9-------------|--0-----2----|  /12
D|--10------------------|-10--------------------------|-10------------|--2-----0----|   
A|--10------------------|-9---------------------------|-8-------------|--0-----x----|   
E|--8-------------------|-8---------------------------|-8-------------|--x----(3)---|   
   top.       Ooh ooh-wah come on baby, put my love on top top top top  top


*********************************** 

| /   Slide up                    |
| \   Slide down                  |
| h   Hammer-on                   |
| x   Don't play this string      |
| .   Staccato                    |
| *   I wasn't sure what to call  |
|      this "chord shape"         |

*********************************** 

            
            
Suggest correction
Creating personal tab
Creating personal tab
You can edit any tab online and save it as your Personal.

You can edit, replace or remove any tab part or add personal notes – all changes will be seen only by you.

Personal tabs can be accessed anytime from any device, even offline.
Learn more »
Give kudos to tab author, rate the tab!
1 2 3 4 5
comments
print report bad tab
guest
You may want to rate the tab now too:
select rating
Wanna post a correction for this tab? Suggest correction