Oops, an error
Loading. Please wait.

少しづつの恋 bass

65 views 1 this week
no commentswrite comment
1 2 3 4 5
3 more votes to show rating
add to favorites
×
Save as Personal and add changes to this tab that will be seen only by you. Learn more ›
×
You can save this tab as Personal to edit and correct it or add notes. All changes will be seen only by you. Learn more »
launch autoscroll
font size
0
reset
guitar tuner
edit
Autoscroll
slow
fast
+/-
esc
set tempo
stop
Author
Difficulty
[Intro]
G|----------------------|
D|----------------------|
A|--------------------0-|
E|-1-1-------------3----|

[Chorus]
G|-----------------------|--------------|------------------|
D|------------------3----|-1-1-1-1-0-0-0|------------------|
A|-1---1-0-0-----------1-|--------------|--------------1-1/|
E|------------3----------|--------------|-3--3-3-3-1-1-----|

G|----------------|----------------|--------------|
D|----------------|----------------|---0-1-3------|
A|-6-6-6-6-6-6-6-6|-5-5-5-5--------|-3------------|
E|----------------|---------3-3-3-3|----------1-1-|

G|--------------|--------------|--------------|--------------|
D|--------------|--------------|--------------|--------------|
A|-1-1-1--1-1-1-|-1-1-1--1-1-1-|-1-1-1--1-1-1-|-1-1-1--1-1-1-|
E|--------------|--------------|--------------|--------------|

[Verse 1]
G|----------------|----------------|--------------|-----------------|
D|----------------|----------------|--------------|-----------------|
A|-1-1-1-1-1-1-1-1|-1-1-1-1-2-2-2-2|-3-3-3-3-3-3-3|-5--5-5-5--------|
E|----------------|----------------|--------------|----------0-0-2-2|

G|----------------|----------------|----------------|----------------|
D|----------------|----------------|----------------|----------------|
A|----------------|----------------|-5-5-5-5-5-5-5-5|----------------|
E|-3-3-3-3-3-3-3-3|-3-3-3-3-3-3-3-3|----------------|-4-4-4-4-3-3-3-3|

G|-----------------|----------------|----------------|----------------|
D|-----------------|----------------|----------------|----------------|
A|-3-3-3-3-3-3-3-3/|-8-8-8-8-6-6-6-6|-5-5-5-5-5-5-5-5|-------------2-2|
E|-----------------|----------------|----------------|-3-3-3-3-5-5----|

G|----------------|-------------|--------------|-----------------|
D|----------------|----------0-1|-3------3-----|-3--3-1-1-0-0----|
A|-3-3-3-3-3-3-3-3|-------------|--------------|--------------3-3|
E|----------------|-4-4-3-1-----|----1-1----1-1|-----------------|

G|----------------|----------------|--------------|-----------------|
D|----------------|----------------|--------------|-----------------|
A|-1-1-1-1-1-1-1-1|-1-1-1-1-2-2-2-2|-3-3-3-3-3-3-3|-5--5-5-5--------|
E|----------------|----------------|--------------|----------0-0-2-2|

G|----------------|----------------|----------------|----------------|
D|----------------|----------------|----------------|----------------|
A|----------------|----------------|-5-5-5-5-5-5-5-5|----------------|
E|-3-3-3-3-3-3-3-3|-3-3-3-3-3-3-3-3|----------------|-4-4-4-4-3-3-3-3|

G|-----------------|----------------|----------------|----------------|
D|-----------------|----------------|----------------|----------------|
A|-3-3-3-3-3-3-3-3/|-8-8-8-8-6-6-6-6|-5-5-5-5-5-5-5-5|-------------2-2|
E|-----------------|----------------|----------------|-3-3-3-3-5-5----|

G|----------------|----------------|----------------|----------------|
D|----------------|----------------|----------------|----------------|
A|-3-3-3-3-3-3-3-3|-------------0-0|-1-1-1-1-1-1-1-1|-1-1-1-1-1-1-0-0|
E|----------------|-1-1-3-3-4-4----|----------------|----------------|

[Pre-Chorus]
G|---------|---------------|----------|---------------|
D|---------|---------------|----------|---------------|
A|---------|---------------|----------|---------------|
E|-3\------|-(5-3-2)-2-----|-2-1------|-(3-1-0)-0-----|

G|-----------|-----------------|-------------------------------|
D|-----------|-----------------|-------------------------------|
A|-----------|-----------------|-1-1-1-1-1-3-3-4--4-5-5-5-5-5-5|
E|-6-8\------|-(3-2-1)-1------1|-------------------------------|

G|---------|---------------|----------|-----------------|
D|---------|---------------|----------|-----------------|
A|---------|---------------|----------|-----------------|
E|-3\------|-(5-3-2)-2-----|-2-1------|-(3-1-0)-0------6|

G|--------------|----------------------------------|
D|--------------|----------------------------------|
A|-3-3-3-5--5-5-|-6-6-6-7--7\--------------------0-|
E|--------------|-------------1-1-------------3----|

[Chorus]
G|-----------------------|--------------|------------------|
D|------------------3----|-1-1-1-1-0-0-0|------------------|
A|-1---1-0-0-----------1-|--------------|--------------1-1/|
E|------------3----------|--------------|-3--3-3-3-1-1-----|

G|----------------|----------------|----------------|---------------|
D|----------------|----------------|-----0-0-1-1-2-2|-3-3-3-3--3-3-3|
A|-6-6-6-6-6-6-6-6|-5-5-5-5--------|-3-3------------|---------------|
E|----------------|---------3-3-3-3|----------------|---------------|

G|-----------------------|--------------|------------------|
D|------------------3----|-1-1-1-1-0-0-0|------------------|
A|-1---1-0-0-----------1-|--------------|--------------1-1/|
E|------------3----------|--------------|-3--3-3-3-1-1-----|

G|----------------|----------------|--------------|
D|----------------|----------------|---0-1-3------|
A|-6-6-6-6-6-6-6-6|-5-5-5-5--------|-3------------|
E|----------------|---------3-3-3-3|----------1-1-|

G|--------------|--------------|--------------|--------------|--------------|------------|
D|--------------|--------------|--------------|--------------|--------------|------------|
A|-1-1-1--1-1-1-|-1-1-1--1-1-1-|-1-1-1--1-1-1-|-1-1-1--1-1-1-|-1-1-1--1-1-1-|--6-5--6--5-|
E|--------------|--------------|--------------|--------------|--------------|------------|

G|----------------|-----------------|----------------|-----------------|
D|----------------|----------3-3----|----------------|----------3-3----|
A|-3-3-3-3-5-5-5-5|-6-6-6-6\--------|-3-3-3-3-5-5-5-5|-6-6-6-6\--------|
E|----------------|--------------1-1|----------------|--------------1-1|

[Verse 2]
G|----------------|----------------|--------------|-----------------|
D|----------------|----------------|--------------|-----------------|
A|-1-1-1-1-1-1-1-1|-1-1-1-1-2-2-2-2|-3-3-3-3-3-3-3|-5--5-5-5--------|
E|----------------|----------------|--------------|----------0-0-2-2|

G|----------------|----------------|----------------|----------------|
D|----------------|----------------|----------------|----------------|
A|----------------|----------------|-5-5-5-5-5-5-5-5|----------------|
E|-3-3-3-3-3-3-3-3|-3-3-3-3-3-3-3-3|----------------|-4-4-4-4-3-3-3-3|

G|-----------------|----------------|----------------|----------------|
D|-----------------|----------------|----------------|----------------|
A|-3-3-3-3-3-3-3-3/|-8-8-8-8-6-6-6-6|-5-5-5-5-5-5-5-5|-------------2-2|
E|-----------------|----------------|----------------|-3-3-3-3-5-5----|

G|----------------|----------------|----------------|----------------|
D|----------------|----------------|----------------|----------------|
A|-3-3-3-3-3-3-3-3|-------------0-0|-1-1-1-1-1-1-1-1|-1-1-1-1-1-1-0-0|
E|----------------|-1-1-3-3-4-4----|----------------|----------------|

[Pre-Chorus]
G|---------|---------------|----------|---------------|
D|---------|---------------|----------|---------------|
A|---------|---------------|----------|---------------|
E|-3\------|-(5-3-2)-2-----|-2-1------|-(3-1-0)-0-----|

G|-----------|-----------------|-------------------------------|
D|-----------|-----------------|-------------------------------|
A|-----------|-----------------|-1-1-1-1-1-3-3-4--4-5-5-5-5-5-5|
E|-6-8\------|-(3-2-1)-1------1|-------------------------------|

G|---------|---------------|----------|-----------------|
D|---------|---------------|----------|-----------------|
A|---------|---------------|----------|-----------------|
E|-3\------|-(5-3-2)-2-----|-2-1------|-(3-1-0)-0------6|

G|--------------|----------------------------------|
D|--------------|----------------------------------|
A|-3-3-3-5--5-5-|-6-6-6-7--7\--------------------0-|
E|--------------|-------------1-1-------------3----|

[Chorus]
G|-----------------------|--------------|------------------|
D|------------------3----|-1-1-1-1-0-0-0|------------------|
A|-1---1-0-0-----------1-|--------------|--------------1-1/|
E|------------3----------|--------------|-3--3-3-3-1-1-----|

G|----------------|----------------|----------------|---------------|
D|----------------|----------------|-----0-0-1-1-2-2|-3-3-3-3--3-3-3|
A|-6-6-6-6-6-6-6-6|-5-5-5-5--------|-3-3------------|---------------|
E|----------------|---------3-3-3-3|----------------|---------------|

G|-----------------------|--------------|------------------|
D|------------------3----|-1-1-1-1-0-0-0|------------------|
A|-1---1-0-0-----------1-|--------------|--------------1-1/|
E|------------3----------|--------------|-3--3-3-3-1-1-----|

G|----------------|----------------|--------------|
D|----------------|----------------|---0-1-3------|
A|-6-6-6-6-6-6-6-6|-5-5-5-5--------|-3------------|
E|----------------|---------3-3-3-3|----------1-1-|

G|-----------------------|--------------|------------------|
D|------------------3----|-1-1-1-1-0-0-0|------------------|
A|-1---1-0-0-----------1-|--------------|--------------1-1/|
E|------------3----------|--------------|-3--3-3-3-1-1-----|

G|----------------|----------------|--------------|
D|----------------|----------------|---0-1-3------|
A|-6-6-6-6-6-6-6-6|-5-5-5-5--------|-3------------|
E|----------------|---------3-3-3-3|----------1-1-|

[Outro]
G|--------------|--------------|--------------|--------------|--------------|
D|--------------|--------------|--------------|--------------|--------------|
A|-1-1-1--1-1-1-|-1-1-1--1-1-1-|-1-1-1--1-1-1-|-1-1-1--1-1-1-|-1-1-1--1-1-1-|
E|--------------|--------------|--------------|--------------|--------------|

G|---------------------|-----------------------------|
D|---------------------|-----------------------------|
A|--6-5--3-------------|---------2-2-2-----------1-1-|
E|----------6--4-------|--2-2-2----------------------|


************************************

| /  slide up
| \  slide down 
| ( ) fast

************************************
Suggest correction
Creating personal tab
Creating personal tab
You can edit any tab online and save it as your Personal.

You can edit, replace or remove any tab part or add personal notes – all changes will be seen only by you.

Personal tabs can be accessed anytime from any device, even offline.
Learn more »
Give kudos to tab author, rate the tab!
1 2 3 4 5
comments
print report bad tab
guest
You may want to rate the tab now too:
select rating
Wanna post a correction for this tab? Suggest correction