Oops, an error
Loading. Please wait.

愛する人よ bass

34 views 1 this week
no commentswrite comment
1 2 3 4 5
3 more votes to show rating
add to favorites
×
Save as Personal and add changes to this tab that will be seen only by you. Learn more ›
×
You can save this tab as Personal to edit and correct it or add notes. All changes will be seen only by you. Learn more »
launch autoscroll
font size
0
reset
guitar tuner
edit
Autoscroll
slow
fast
+/-
esc
set tempo
stop
Author
Difficulty
[Intro] (x2)
G|----------------|----------------|----------------|----------------|
D|----------------|----------------|----------------|----------------|
A|----------------|-5-5-5-5-5-5-5-5|----------------|-5-5-5-5-5-5-5-5|
E|-5-5-5-5-5-5-5-5|----------------|-5-5-5-5-5-5-5-5|----------------|

[Verse 1]
G|--------------|--------------|--------------|---------------|
D|--------------|--------------|--------------|---------------|
A|--------------|-5-5----5-5---|--------------|-5-5----5-5----|
E|-5-5--0-5-5--0|------5------5|-5-5--0-5-5--0|------5-----7-6|

G|--------------|--------------|--------------|---------------|
D|--------------|--------------|--------------|---------------|
A|--------------|-5-5----5-5---|--------------|-5-5----5-5-5-5|
E|-5-5--0-5-5--0|------5------5|-5-5--0-5-5--0|------5--------|

G|----------------|----------------|----------------|----------------|
D|-2-2-2-2-4-4-4-4|-5-5-5-5--------|----------------|----------------|
A|----------------|---------3-3-3-3|-5-5-5-5-5-5-5-5|-5-5-5-5-5-5-5-5|
E|----------------|----------------|----------------|----------------|

G|----------------|----------------|----------------|----------------|
D|-2-2-2-2-4-4-4-4|-5-5-5-5--------|----------------|----------------|
A|----------------|---------3-3-3-3|-7-7-7-7-7-7-7-7|-7-7-7-7-7-7----|
E|----------------|----------------|----------------|-------------7-6|

G|--------------|--------------|--------------|---------------|
D|--------------|--------------|--------------|---------------|
A|--------------|-5-5----5-5---|--------------|-5-5----5-5----|
E|-5-5--0-5-5--0|------5------5|-5-5--0-5-5--0|------5-----7-6|

G|--------------|--------------|--------------|---------------|
D|--------------|--------------|--------------|---------------|
A|--------------|-5-5----5-5---|--------------|-5-5----5-5-5-5|
E|-5-5--0-5-5--0|------5------5|-5-5--0-5-5--0|------5--------|

G|----------------|----------------|----------------|----------------|
D|-2-2-2-2-4-4-4-4|-5-5-5-5--------|----------------|----------------|
A|----------------|---------3-3-3-3|-5-5-5-5-5-5-5-5|-5-5-5-5-5-5-5-5|
E|----------------|----------------|----------------|----------------|

G|----------------|----------------|----------------|----------------|
D|-2-2-2-2-4-4-4-4|-5-5-5-5--------|-2-2-2-2-2-2-2-2|-2-2-2-2-2-2-2-2|
A|----------------|---------3-3-3-3|----------------|----------------|
E|----------------|----------------|----------------|----------------|

[Chorus]
G|----------------|----------------|----------------|----------------|
D|-5-5-5-5-5-5-5-5|----------------|-5-5-5-5-5-5-5-5|----------------|
A|----------------|-3-3-3-3-3-3-3-3|----------------|-3-3-3-3-3-3-3-3|
E|----------------|----------------|----------------|----------------|

G|----------------|-------5/7--5-5-4|--------------|----------------|
D|-5-5-5-5-5-5-5-5|-6-6-6-----------|-7-7-7-7-7-7-7|--------5--5-5-5|
A|----------------|-----------------|--------------|-3--3-3---------|
E|----------------|-----------------|--------------|----------------|

G|----------------|----------------|----------------|----------------|
D|-5-5-5-5-5-5-5-5|----------------|-5-5-5-5-5-5-5-5|----------------|
A|----------------|-3-3-3-3-3-3-3-3|----------------|-3-3-3-3-3-3-3-3|
E|----------------|----------------|----------------|----------------|

G|----------------|-------5/7--5-5-4|--------------|----------------|
D|-5-5-5-5-5-5-5-5|-6-6-6-----------|-7-7-7-7-7-7-7|--------5--5-5-5|
A|----------------|-----------------|--------------|-3--3-3---------|
E|----------------|-----------------|--------------|----------------|

G|----------------|----------------|----------------|----------------|----------------|
D|----------------|----------------|----------------|----------------|----------------|
A|-7-7-7-7-7-7-7-7|----------------|-5-5-5-5-5-5-5-5|-3-3-3-3-3-3-3-3|-3-3-3-3-3-3-3-3|
E|----------------|-5-5-5-5-5-5-5-5|----------------|----------------|----------------|

[Instrumental]
G|----------------|----------------|----------------|----------------|
D|----------------|----------------|----------------|----------------|
A|----------------|---------3-3-3-3|----------------|---------3-3-3-3|
E|-0-0-0-0-2-2-2-2|-3-3-3-3--------|-0-0-0-0-2-2-2-2|-3-3-3-3--------|

G|----------------|----------------|----------------|----------------|
D|----------------|----------------|----------------|----------------|
A|----------------|---------3-3-3-3|-5-5-5-5-5-5-5-5|-5-5-5-5-5-5-5-5|
E|-0-0-0-0-2-2-2-2|-3-3-3-3--------|----------------|----------------|

G|----------------|----------------|----------------|-----------------|
D|----------------|----------------|----------------|-----------------|
A|----------------|---------3-3-3-3|----------------|---------3-3-3-3/|
E|-0-0-0-0-2-2-2-2|-3-3-3-3--------|-0-0-0-0-2-2-2-2|-3-3-3-3---------|

G|----------------|---------5-5-5-5|----------------|----------------|
D|---------4-4-4-4|-5-5-5-5--------|----------------|----------------|
A|-7-7-7-7--------|----------------|-7-7-7-7-7-7-7-7|-7-7-7-7-7-7----|
E|----------------|----------------|----------------|-------------7-6|

[Verse 2]
G|--------------|--------------|--------------|---------------|
D|--------------|--------------|--------------|---------------|
A|--------------|-5-5----5-5---|--------------|-5-5----5-5----|
E|-5-5--0-5-5--0|------5------5|-5-5--0-5-5--0|------5-----7-6|

G|--------------|--------------|--------------|---------------|
D|--------------|--------------|--------------|---------------|
A|--------------|-5-5----5-5---|--------------|-5-5----5-5-5-5|
E|-5-5--0-5-5--0|------5------5|-5-5--0-5-5--0|------5--------|

G|----------------|----------------|----------------|----------------|
D|-2-2-2-2-4-4-4-4|-5-5-5-5--------|----------------|----------------|
A|----------------|---------3-3-3-3|-5-5-5-5-5-5-5-5|-5-5-5-5-5-5-5-5|
E|----------------|----------------|----------------|----------------|

G|----------------|----------------|----------------|----------------|
D|-2-2-2-2-4-4-4-4|-5-5-5-5--------|-2-2-2-2-2-2-2-2|-2-2-2-2-2-2-2-2|
A|----------------|---------3-3-3-3|----------------|----------------|
E|----------------|----------------|----------------|----------------|

[Chorus]
G|----------------|----------------|----------------|----------------|
D|-5-5-5-5-5-5-5-5|----------------|-5-5-5-5-5-5-5-5|----------------|
A|----------------|-3-3-3-3-3-3-3-3|----------------|-3-3-3-3-3-3-3-3|
E|----------------|----------------|----------------|----------------|

G|----------------|-------5/7--5-5-4|--------------|----------------|
D|-5-5-5-5-5-5-5-5|-6-6-6-----------|-7-7-7-7-7-7-7|--------5--5-5-5|
A|----------------|-----------------|--------------|-3--3-3---------|
E|----------------|-----------------|--------------|----------------|

G|----------------|----------------|----------------|----------------|
D|-5-5-5-5-5-5-5-5|----------------|-5-5-5-5-5-5-5-5|---------------4|
A|----------------|-3-3-3-3-3-3-3-3|----------------|-3-3-3-3-3-3-3--|
E|----------------|----------------|----------------|----------------|

G|----------------|-------5/7--5-5-4|--------------|----------------|
D|-5-5-5-5-5-5-5-5|-6-6-6-----------|-7-7-7-7-7-7-7|--------5--5-5-5|
A|----------------|-----------------|--------------|-3--3-3---------|
E|----------------|-----------------|--------------|----------------|

G|----------------|----------------|----------------|----------------|----------------|
D|----------------|----------------|----------------|----------------|----------------|
A|-7-7-7-7-7-7-7-7|-------------7-6|-5-5-5-5-5-5-5-5|-3-3-3-3-3-3-3-3|-3-3-3-3-3-3-3-3|
E|----------------|-5-5-5-5-5-5----|----------------|----------------|----------------|

[Outro]
G|----------------|----------------|----------------|----------------|
D|----------------|----------------|----------------|----------------|
A|----------------|---------3-3-3-3|----------------|---------3-3-3-3|
E|-0-0-0-0-2-2-2-2|-3-3-3-3--------|-0-0-0-0-2-2-2-2|-3-3-3-3--------|

G|----------------|-----------------|----------------|---------5-5-5-5|
D|----------------|-----------------|---------4-4-4-4|-5-5-5-5--------|
A|----------------|---------3-3-3-3/|-7-7-7-7--------|----------------|
E|-0-0-0-0-2-2-2-2|-3-3-3-3---------|----------------|----------------|

G|----------------|----------------|----------------|----------------|
D|----------------|----------------|----------------|----------------|
A|----------------|---------3-3-3-3|----------------|---------3-3-3-3|
E|-0-0-0-0-2-2-2-2|-3-3-3-3--------|-0-0-0-0-2-2-2-2|-3-3-3-3--------|

G|----------------|-----------------|----------------|---------5-5-5-5|
D|----------------|-----------------|---------4-4-4-4|-5-5-5-5--------|
A|----------------|---------3-3-3-3/|-7-7-7-7--------|----------------|
E|-0-0-0-0-2-2-2-2|-3-3-3-3---------|----------------|----------------|

G|----------------|----------------|----------------|-----------------|
D|----------------|----------------|----------------|-----------------|
A|----------------|---------3-3-3-3|----------------|---------3-3-3-3/|
E|-0-0-0-0-2-2-2-2|-3-3-3-3--------|-0-0-0-0-2-2-2-2|-3-3-3-3---------|

G|----------------|---------5-5-5-5|----------------|---------5-5-5-5|
D|---------4-4-4-4|-5-5-5-5--------|---------4-4-4-4|-5-5-5-5--------|
A|-7-7-7-7--------|----------------|-7-7-7-7--------|----------------|
E|----------------|----------------|----------------|----------------|

                                                           (fade out)
G|----------------|---------5-5-5-5|----------------|---------5-5-5-5|
D|---------4-4-4-4|-5-5-5-5--------|---------4-4-4-4|-5-5-5-5--------|
A|-7-7-7-7--------|----------------|-7-7-7-7--------|----------------|
E|----------------|----------------|----------------|----------------|


************************************

| /  Slide up

************************************

            
            
Suggest correction
Creating personal tab
Creating personal tab
You can edit any tab online and save it as your Personal.

You can edit, replace or remove any tab part or add personal notes – all changes will be seen only by you.

Personal tabs can be accessed anytime from any device, even offline.
Learn more »
Give kudos to tab author, rate the tab!
1 2 3 4 5
comments
print report bad tab
guest
You may want to rate the tab now too:
select rating
Wanna post a correction for this tab? Suggest correction