Oops, an error
Loading. Please wait.

Reiß Dich Los chords

133 views 3 this week
no commentswrite comment
1 2 3 4 5
3 more votes to show rating
add to favorites
×
Save as Personal and add changes to this tab that will be seen only by you. Learn more ›
×
You can save this tab as Personal to edit and correct it or add notes. All changes will be seen only by you. Learn more »
launch autoscroll
font size
0
reset
transpose
0
reset
simplify chords
display chords
guitar tuner
edit
Autoscroll
slow
fast
+/-
esc
set tempo
stop
Author
Difficulty
Strumming Are these strumming patterns correct? Yes No
Strophe 136 bpm
1
&
2
&
3
&
4
&
Listen
Refrain 136 bpm
1
&
2
&
3
&
4
&
Listen
Die Toten Hosen -- Reiß dich los (Ballast der Republik)

Viel Spaß! :-)



Dm Dm Dm Am

[Strophe]
    Dm                   Dm
Die Welt bietet uns grad Frieden an
    Dm                      Am
Und alles scheint leicht zu gehen
    Dm                  Dm
Der Wind steht still im Paradies
         Dm                 Am
Nur mein Atem, der sich überschlägt
      Dm                         Dm
Heute wär' so ein Tag, an dem es einfach ist
    Dm                     Am
Die Schönheit der Dinge zu sehen

         Bb                    Gm
Doch ich halt's nicht aus, ich muss hier weg
    F                 A
Nur du kannst mich verstehen


[Refrain]
                Dm  Am
Komm, reiß dich loooooos
    C                   G
Wir sind noch nicht angekommen
       Dm  Am
Müssen loooooos
C               G
Einfach auf und davon

Dm


[Strophe]
    Dm           Dm
Wir stoßen diese Schwerkraft ab
   Dm                Am
An die wir gefesselt sind
        Dm           Dm
Brechen aus der Warteschleife aus
     Dm                  Am
Sind nicht mehr taub und blind
    Dm              Dm
Wir steigen auf den höchsten Berg
    Dm                    Am
Wir schwimmen durch jedes Meer

Bb                   Gm
Bereuen nichts, sind frei wie nie
        F              A
All die Wunden sind es wert


[Refrain]
                Dm   Am
Komm, reiß dich los (jetzt oder nie)
    C                   G
Wir sind noch nicht angekommen
       Dm      Am
Müssen los (es gibt kein Zurück)
C               G
Einfach auf und davon
         Bb  F
Lass uns geeeeehen
           C                G
Vielleicht finden wir unser Glück
       Bb  F
Wollen seeeeehen
      C              G
Was davon noch übrig ist


[Solo]
 | .     :     .     .     .     :     .     .     .     :     .     .     .     :     .     .     |
e|-------------------------------------------------------9-----------10----------------------------|
B|----------------------------------------------8--10-11-------------------11----10----------------|
G|-------10-------------------------------9--10----------------------------------------------------|
D|-8-----------------------------------------------------------------------------------------------|
A|-------------------------------------------------------------------------------------------------|
E|-------------------------------------------------------------------------------------------------|

 | .     :     .     .     .     :     .     .     .     |
e|-------------------------------------------------------|
B|----------------------------------------------8--10-11-|
G|-------10-------------------------------9--10----------|
D|-8-----------------------------------------------------|
A|-------------------------------------------------------|
E|-------------------------------------------------------|

 | :        .        .        .        :        .        .        .        :     |
e|-9------------10-9--------------9----------------------------------------------|
B|-------------------11-------------11-10-----------11-8-------------------------|
G|-------------------------------------------------------10-------9--------7-----|
D|-------------------------------------------------------------------------------|
A|-------------------------------------------------------------------------Dm----|
E|-------------------------------------------------------------Nimm nichts mit---|


[Bridge]
            Dm                Dm/E
Nimm nichts mit, wir brauchen nichts
           Dm/F                Dm/G
Lass alles hier und schmeiß es weg
        Bb                 Gm
All die Souveniers, unsere Biographien
    F              A
Nur lästiges Übergewicht


[Refrain]
                Dm   Am
Komm, reiß dich los (jetzt oder nie)
    C                   G
Wir sind noch nicht angekommen
       Dm      Am
Müssen los (es gibt kein Zurück)
C               G
Einfach auf und davon
         Bb  F
Lass uns geeeeehen
           C                G
Vielleicht finden wir unser Glück
       Bb  F
Wollen seeeeehen
      C              G
Was davon noch übrig ist

Dm Dm/E Dm/F Dm

            
            
Suggest correction
Creating personal tab
Creating personal tab
You can edit any tab online and save it as your Personal.

You can edit, replace or remove any tab part or add personal notes – all changes will be seen only by you.

Personal tabs can be accessed anytime from any device, even offline.
Learn more »
Give kudos to tab author, rate the tab!
1 2 3 4 5
comments
print report bad tab
guest
You may want to rate the tab now too:
select rating
Wanna post a correction for this tab? Suggest correction