Oops, an error
Loading. Please wait.

風立ちぬ bass

62 views 1 this week
no commentswrite comment
1 2 3 4 5
3 more votes to show rating
add to favorites
×
Save as Personal and add changes to this tab that will be seen only by you. Learn more ›
×
You can save this tab as Personal to edit and correct it or add notes. All changes will be seen only by you. Learn more »
launch autoscroll
font size
0
reset
guitar tuner
edit
Autoscroll
slow
fast
+/-
esc
set tempo
stop
Author
Difficulty
[Intro]
G|--------------|------------|-----------|------------|--------------|--------------|
D|--------------|-----7------|-----8-----|-----8------|-----------3--|---------3-5-7|
A|-----8/10---8-|-5-------8-5|-6---------|-6-------6\-|--3--5--6-----|--3--5-6------|
E|-6------------|------------|---------6-|------------|--------------|--------------|

[Chorus]
G|--------------|------------|-------------|------------|
D|--------------|-----7------|-5---12--\---|-----7------|
A|-----8/10---8-|-5-------8-5|-----------8-|-5-------8-5|
E|-6------------|------------|-------------|------------|

G|------------|------------|------------|-------------|
D|------------|-------5--5-|-------5--8-|-------------|
A|-------8--8-|-5---5------|-3--6-------|-6----6--6--6|
E|-8---8------|------------|------------|-------------|

G|-----------|---------------|----------|----------|
D|-----------|---------------|----------|----------|
A|-----------|---------------|-1---1----|-1---1----|
E|-6---6---6-|--1-1-1-1-1-1-1|----------|----------|

[Verse 1]
G|------------|-------------|-----------|-----3-----|
D|---------0-1|-3---3--3-5-3|-----------|-----------|
A|-1---1------|-------------|-1---1-----|-1-------1-|
E|------------|-------------|----------1|-----------|

G|----------|----------|----------|----------|
D|----------|----------|----------|----------|
A|-1--------|-3--------|-1---4----|-3--------|
E|-----3----|-----1----|----------|-----1----|

G|------------|-------------|-----------|------------|
D|---------0-1|-3---3--3-5-3|-----------|---------7--|
A|-1---1------|-------------|-1---1----3|-5---5-----5|
E|------------|-------------|-----------|------------|

G|-----------|------------|------------|----------------|
D|-----------|---------7--|---------5--|----------------|
A|-6---6----6|-5---5-----5|-3---3-----3|-5-5-5-5-5-5-5-5|
E|-----------|------------|------------|----------------|

G|----------|----------|--------------|------------|
D|----------|----------|-------------6|-4---4-3---3|
A|----------|-6--6-----|---------3-6--|------------|
E|-3--3-----|----------|-4---4-4------|------------|

G|------------|-------------|-----------|-----3-----|
D|---------0-1|-3---3--3-5-3|-----------|-----------|
A|-1---1------|-------------|-1---1-----|-1-------1-|
E|------------|-------------|----------1|-----------|

G|----------|----------|----------|----------|
D|----------|----------|----------|----------|
A|-1--------|-3--------|-1---4----|-3--------|
E|-----3----|-----1----|----------|-----1----|

G|------------|-------------|-----------|------------|
D|---------0-1|-3---3--3-5-3|-----------|---------7--|
A|-1---1------|-------------|-1---1----3|-5---5-----5|
E|------------|-------------|-----------|------------|

G|-----------|------------|-------------|----------------|
D|-----------|---------7--|----------5--|----------------|
A|-6---6----6|-5---5-----5|-3---3--3---3|-5-5-5-5-5-5-5-5|
E|-----------|------------|-------------|----------------|

G|----------|----------|----------------|----------------|
D|----------|----------|----------------|----------------|
A|----------|-6--6-----|-8-8-8-8-8-8-8-8|-8-8-8-8-8-8-8-8|
E|-3--3-----|----------|----------------|----------------|

[Chorus]
G|--------------|------------|-------------|------------|
D|--------------|-----7------|-5---12--\---|-----7------|
A|-----8/10---8-|-5-------8-5|-----------8-|-5-------8-5|
E|-6------------|------------|-------------|------------|

G|------------|------------|------------|----------------|
D|------------|-8---8-5--5-|------------|----------------|
A|-6---6-8--8-|------------|-3---3---5-7|-8-8-8-8-8-8-8-8|
E|------------|------------|------------|----------------|

G|--------------|------------|-------------|------------|
D|--------------|-----7------|-5---12--\---|-----7------|
A|-----8/10---8-|-5-------8-5|-----------8-|-5-------8-5|
E|-6------------|------------|-------------|------------|

G|------------|------------|------------|-------------|
D|------------|-------5--5-|-------5--8-|-------------|
A|-------8--8-|-5---5------|-3--6-------|-6----6--6--6|
E|-8---8------|------------|------------|-------------|

[Instrumental]
G|--------------|------------|-------------|------------|
D|--------------|-----7------|-5---12--\---|-----7------|
A|-----8/10---8-|-5-------8-5|-----------8-|-5-------8-5|
E|-6------------|------------|-------------|------------|

G|------------|------------|-----------|-----------|
D|------------|-------5--5-|-----5---8-|-----7-----|
A|-------8--8-|-5---5------|-6---------|-8-------8-|
E|-8---8------|------------|-----------|-----------|

G|-----------|---------------|----------|----------|
D|-----------|---------------|----------|----------|
A|-----------|---------------|-1---1----|-1---1----|
E|-6---6---6-|--1-1-1-1-1-1-1|----------|----------|

[Verse 2]
G|------------|-------------|-----------|-----3-----|
D|---------0-1|-3---3--3-5-3|-----------|-----------|
A|-1---1------|-------------|-1---1-----|-1-------1-|
E|------------|-------------|----------1|-----------|

G|----------|----------|----------|----------|
D|----------|----------|----------|----------|
A|-1--------|-3--------|-1---4----|-3--------|
E|-----3----|-----1----|----------|-----1----|

G|------------|-------------|-----------|-------------|
D|---------0-1|-3---3--3-5-3|-----------|----------7--|
A|-1---1------|-------------|-1---1----3|-5---5--5---5|
E|------------|-------------|-----------|-------------|

G|-------------|------------|------------|----------------|
D|-------------|---------7--|------------|----------------|
A|-6---6--6-8-6|-5---5-----5|-3---3---3-3|-5-5-5-5-5-5-5-5|
E|-------------|------------|------------|----------------|

G|----------|----------|----------------|----------------|
D|----------|----------|----------------|----------------|
A|----------|-6--6-----|-8-8-8-8-8-8-8-8|-8-8-8-8-8-8-8-8|
E|-3--3-----|----------|----------------|----------------|

[Chorus]
G|--------------|------------|-------------|------------|
D|--------------|-----7------|-5---12--\---|-----7------|
A|-----8/10---8-|-5-------8-5|-----------8-|-5-------8-5|
E|-6------------|------------|-------------|------------|

G|------------|------------|------------|----------------|
D|------------|-8---8-5--5-|------------|----------------|
A|-6---6-8--8-|------------|-3---3---5-7|-8-8-8-8-8-8-8-8|
E|------------|------------|------------|----------------|

G|--------------|------------|-------------|------------|
D|--------------|-----7------|-5---12--\---|-----7------|
A|-----8/10---8-|-5-------8-5|-----------8-|-5-------8-5|
E|-6------------|------------|-------------|------------|

G|------------|------------|------------|-------------|
D|------------|-------5--5-|-------5--8-|-------------|
A|-------8--8-|-5---5------|-3--6-------|-6----6--6--6|
E|-8---8------|------------|------------|-------------|

G|-----------|-------------|-----------------|
D|-----------|-----------3-|-3--2--1--0------|
A|-----------|--3--5--6----|-------------4--3|
E|-6---6---6-|-------------|-----------------|

G|--------------|------------|-------------|------------|
D|--------------|-----7------|-5---12--\---|-----7------|
A|-----8/10---8-|-5-------8-5|-----------8-|-5-------8-5|
E|-6------------|------------|-------------|------------|

G|------------|------------|------------|----------------|
D|------------|-8---8-5--5-|------------|----------------|
A|-6---6-8--8-|------------|-3---3---5-7|-8-8-8-8-8-8-8-8|
E|------------|------------|------------|----------------|

G|--------------|------------|-------------|-----------|
D|--------------|-----7------|-5---12--\---|-----7-----|
A|-----8/10---8-|-5-------8-5|-----------8-|-5-------5\|
E|-6------------|------------|-------------|-----------|

G|------------|------------|------------|-------------|
D|-------3--3-|-------5--5-|-------5--8-|-------------|
A|-3---3------|-5---5------|-3--6-------|-6----6--6--6|
E|------------|------------|------------|-------------|

[Outro]
G|-----------|--------------|-----------|-------------------------------|
D|-----------|--------------|-----------|-----------5-7-8---------------|
A|-----------|--------------|-----------|-----5-6-8---------------------|
E|-6---6---6-|--6--6-6-6-6-6|-8---8---8-|--8----------------------------|



****************************

| / slide up
| \ slide down

****************************

            
            
Suggest correction
Creating personal tab
Creating personal tab
You can edit any tab online and save it as your Personal.

You can edit, replace or remove any tab part or add personal notes – all changes will be seen only by you.

Personal tabs can be accessed anytime from any device, even offline.
Learn more »
Give kudos to tab author, rate the tab!
1 2 3 4 5
comments
print report bad tab
guest
You may want to rate the tab now too:
select rating
Wanna post a correction for this tab? Suggest correction