Oops, an error
Loading. Please wait.

Vor Í Vaglaskógi intro tab

version 1
version 1

Intro

Interactive

by Kaleo
13,945 views 423 this week
3 commentsread comments
1 2 3 4 5
x 39
add to favorites
×
Save as Personal and add changes to this tab that will be seen only by you. Learn more ›
×
You can save this tab as Personal to edit and correct it or add notes. All changes will be seen only by you. Learn more »
launch autoscroll
font size
0
reset
how to read this tab
guitar tuner
edit
Autoscroll
slow
fast
+/-
esc
set tempo
stop
[Intro]
e|-----3-------5-------7-------0--------8-----------------7\--------------2--|
B|-------0-------0-------0-------0-------------------------------------------|
G|---------------------------------------------------------------------------|
D|-----2-------4-------5----------------7-----------------5\--------------1--|
A|-----------------------------3---------------------------------------------|
E|---------------------------------------------------------------------------|

       Em                      C                      Am                      Em
e|-0-------0---0-------0---|-0-------0---0-------0---|-0-------0---0-------2/---|-3-------3---3-------3----|
B|-----0-----------0-------|-----1-----------1-------|-----1-----------1--------|-----0-----------0--------|
G|---0-------0---0-------0-|---0-------0---0-------0-|---2-------2---2--------2-|---0-------0---0-------0--|
D|-2-----2-----2-----2-----|-------------------------|-------------1-----1------|-2-----2-----2-----2------|
A|-------------------------|-3-----3-----3-----3-----|-0-----0------------------|--------------------------|
E|-------------------------|-------------------------|--------------------------|--------------------------|

       Em                      C            Em6         Am          B7          Em
e|-3-------3---3-------3---|-3-------3---2-------0---|-0-------0---0-------2---|-0-------0---0-------0-----|
B|-----0-----------0-------|-----1-----------0-------|-----1-----------0-------|-----0-----------0---------|
G|---0-------0---0-------0-|---------------0-------0-|---2-------2---2-------2-|---0-------0---0-------0---|
D|-2-----2-----2-----2-----|---2-------2-2-----2-----|-------------------------|-2-----2-----2-----2-------|
A|-------------------------|-3-----3-----------------|-0-----0-----2-----2-----|---------------------------|
E|-------------------------|-------------------------|-------------------------|---------------------------|


************************************

| \  Slide down
| /  Slide up

************************************

            
            
Suggest correction
Creating personal tab
Creating personal tab
You can edit any tab online and save it as your Personal.

You can edit, replace or remove any tab part or add personal notes – all changes will be seen only by you.

Personal tabs can be accessed anytime from any device, even offline.
Learn more »
comments
print report bad tab
3 comments total.
+8 reply
Spixmaster 15 Feb 04, 2017 03:31 PM

Good job.

0 reply
alexander.arabski 10 Apr 14, 2017 05:30 PM

👍

0 reply
61227 10 Jul 05, 2017 03:12 AM

thank you! well done :)

guest
You may want to rate the tab now too:
select rating
Wanna post a correction for this tab? Suggest correction