Oops, an error
Loading. Please wait.

Hey Wir Wolln Die Eisbärn Sehn chords

by Puhdys
727 views 39 this week
no commentswrite comment
1 2 3 4 5
1 last vote to show rating
add to favorites
×
Save as Personal and add changes to this tab that will be seen only by you. Learn more ›
×
You can save this tab as Personal to edit and correct it or add notes. All changes will be seen only by you. Learn more »
launch autoscroll
font size
0
reset
transpose
0
reset
display chords
guitar tuner
edit
Autoscroll
slow
fast
+/-
esc
set tempo
stop
Author
Difficulty
Strumming
There is no strumming pattern for this song yet. and get +5 IQ
[Intro]
F#m D A (x2)

[Melodie]
e|-------------------------------------|-------------------------------|
B|-------------------------------------|-------------------------------|
G|-------------------------------------|-------------------------------|
D|-------------------------------------|-------------------------------|
A|----------2-----4-----5--4-----2--4--|----------2-----4-----2--4-----|
E|-2--5--2-----2-----2--------5--------|-2--5--2-----2-----5--------2--|

e|-------------------------------------|----------------------------------|--------|
B|-------------------------------------|----------------------------------|--------|
G|-------------------------------------|----------------------------------|--------|
D|-------------------------------------|---------------------------2----4-|-4~~~~~-|
A|----------2-----4-----5--4-----2--4--|----------2-----4-----5-----------|--------|
E|-2--5--2-----2-----2--------5--------|-2--5--2-----2-----2-----2---2----|--------|

[Verse]
F#m                          D     F#m    A    E     A     E
Sie sind die Könige auf dem Ewigen Eis   (ohoh ohoh  oh)
F#m                  D     F#m    A    E     A     E
Und ihr Thron ist blau-rot-weiß   (ohoh ohoh  oh)
F#m                  D     A       A    E     A     E
Und der wird niemals untergehen   (ohoh ohoh  oh)
F#m            D                E
niemals, weil wir hinter euch stehen

[Chorus]
F#m                   D              A    E     A     E
Hey, wir wollen die Eisbären seh'n  (ohoh ohoh  oh) 
F#m                   D              A    E     A     E
Hey, wir wollen die Eisbären seh'n  (ohoh ohoh  oh) 
D          E            A          D
Denn unser Leben wär so leer ohne Bär'n
D               A      E    A   D
Wir haben die Eisbären so gern
D               A      E    A   D
Wir haben die Eisbären so gern

[Melodie]
e|-------------------------------------|-------------------------------|
B|-------------------------------------|-------------------------------|
G|-------------------------------------|-------------------------------|
D|-------------------------------------|-------------------------------|
A|----------2-----4-----5--4-----2--4--|----------2-----4-----2--4-----|
E|-2--5--2-----2-----2--------5--------|-2--5--2-----2-----5--------2--|

e|-------------------------------------|----------------------------------|--------|
B|-------------------------------------|----------------------------------|--------|
G|-------------------------------------|----------------------------------|--------|
D|-------------------------------------|---------------------------2----4-|-4~~~~~-|
A|----------2-----4-----5--4-----2--4--|----------2-----4-----5-----------|--------|
E|-2--5--2-----2-----2--------5--------|-2--5--2-----2-----2-----2---2----|--------|

[Verse]
F#m                       D     F#m    A    E     A     E
Sie sind so Wild auf dem Ewigen Eis   (ohoh ohoh  oh)
F#m                    D     F#m    A    E     A     E
Jeder denkt, was jeder hier weiß   (ohoh ohoh  oh)
F#m                  D     A      A    E     A     E
so bärenstark und voll Energie   (ohoh ohoh  oh)
F#m              D                      E
so warn sie, so warn die Eisbären noch nie

[Chorus]
F#m                   D              A    E     A     E
Hey, wir wollen die Eisbären seh'n  (ohoh ohoh  oh) 
F#m                   D              A    E     A     E
Hey, wir wollen die Eisbären seh'n  (ohoh ohoh  oh) 
D          E            A          D
Denn unser Leben wär so leer ohne Bär'n
D               A      E    A   D
Wir haben die Eisbären so gern
D               A      E    A   D
Wir haben die Eisbären so gern

[Interlude] (x2)
F#m D A

[Melodie]
e|-------------------------------------|-------------------------------|
B|-------------------------------------|-------------------------------|
G|-------------------------------------|-------------------------------|
D|-------------------------------------|-------------------------------|
A|----------2-----4-----5--4-----2--4--|----------2-----4-----2--4-----|
E|-2--5--2-----2-----2--------5--------|-2--5--2-----2-----5--------2--|

e|-------------------------------------|----------------------------------|--------|
B|-------------------------------------|----------------------------------|--------|
G|-------------------------------------|----------------------------------|--------|
D|-------------------------------------|---------------------------2----4-|-4~~~~~-|
A|----------2-----4-----5--4-----2--4--|----------2-----4-----5-----------|--------|
E|-2--5--2-----2-----2--------5--------|-2--5--2-----2-----2-----2---2----|--------|

[Chorus]
F#m                   D              A    E     A     E
Hey, wir wollen die Eisbären seh'n  (ohoh ohoh  oh) 
F#m                   D              A    E     A     E
Hey, wir wollen die Eisbären seh'n  (ohoh ohoh  oh) 
D          E            A          D
Denn unser Leben wär so leer ohne Bär'n
D               A      E    A   D
Wir haben die Eisbären so gern
D               A      E    A   D
Wir haben die Eisbären so gern

[Outro]
A  E  A  D

            
            
Suggest correction
Creating personal tab
Creating personal tab
You can edit any tab online and save it as your Personal.

You can edit, replace or remove any tab part or add personal notes – all changes will be seen only by you.

Personal tabs can be accessed anytime from any device, even offline.
Learn more »
Give kudos to tab author, rate the tab!
1 2 3 4 5
comments
print report bad tab
guest
You may want to rate the tab now too:
select rating
Wanna post a correction for this tab? Suggest correction