Oops, an error
Loading. Please wait.

Lotto Millionär chords

31 views 3 this week
no commentswrite comment
1 2 3 4 5
3 more votes to show rating
add to favorites
×
Save as Personal and add changes to this tab that will be seen only by you. Learn more ›
×
You can save this tab as Personal to edit and correct it or add notes. All changes will be seen only by you. Learn more »
launch autoscroll
font size
0
reset
transpose
0
reset
display chords
guitar tuner
edit
Autoscroll
slow
fast
+/-
esc
set tempo
stop
Author
Difficulty
Strumming
There is no strumming pattern for this song yet. and get +5 IQ
G-Dur

fill 1:
E |-(3)--------------3-|-| 
B |-(3)--------------3-|-| 
G |-(4)--------------4-|-|
D |--5-4-2-0---------5-|-| 
A |-(5)------3-2-0---5-|-| 
E |-(3)------------3-3-|-|

[Intro]
G                  C
Fritig Obed, halbe sechsi vorbei
G                          D
Hoffentlich hab i au gnuäg Geld däbei
G                      C
ich fahr no schnell a d'Lotto-Stell' nuus
D                      G 
und hol dä Lotto-Zettl ruus

G               C
Mit Syschtem a d'Millionä na
G                      D
Spiel 77, des kriez ich au no a
G                        C
s Geld isch weg, du ich hab nint me
D                               G
do hilft nu no oäs und des isch d'Lotto Fee

[Chorus]
        C                                    G
Du, ich wart äll Samschtig Obäd uff dä Lotto Gwinn
   C                                      G
Dä Sekt der schtoht bei mir scho im Kibbl drin
C                D                    G
Koffer sind scho packt, ich hoff dass klappt

   G                                    G
Ich wart äll Samschtig Obäd uff dä Lotto Gwinn
   C                                      G
ich hoff dass mini Zahlä richtig sind
C                D                    G
Ich glaub einfach dra des haut mol na

[Instrumental]
C  D  C  D  G fill

[Verse]
G
Kumm ich i's Büro, ich zoäg im Chef dä Po

Egal wa dann isch, ich schieß im uff dä Tisch

[Chorus]
        C                                    G
Ich wart äll Samschtig Obäd uff dä Lotto Gwinn
   C                                      G
ich hoff dass mini Zahlä richtig sind
C                D                    G
do gieht's halt kon Trick mo bruch halt Glück

[Instrumental]
C  D  C  D  G fill

[Verse]
G
Am Mentig schlof ich us, am Zieschtig schlof ich us

Am Mittwoch, am Dunnschtig, des halt ich ewig us

[Chorus]
        C                                    G
Ich wart äll Samschtig Obäd uff dä Lotto Gwinn
   C                                      G
ich hoff dass mini Zahlä richtig sind
C                D                    G
ich glaub einfach dra, des haut mol na

[Instrumental]
G  C  G  C
G  C  G  D
G  C  G  C

[Bass Solo]
E|-----------------|----------------|-----------------|-----------------|-----------------|-----------------|
B|-----------------|----------------|-----------------|-----------------|-----------------|-----------------|
G|-----------------|----------------|---5-3-2-0-------|-----------------|-----------------|-----------------|
D|-----------2-3-4-|5-2-0-----------|-----------2-3-4-|---5-3-2-0-------|---2-4-0---2-0---|-----------------|
A|---2-3-4-5-------|------2---5---2-|-3---------------|-----------2-3-4-|-5-------3-----2-|---2-3-4-5-3-2-0-|
E|-3---------------|--------3---3---|-----------------|-3---------------|-----------------|-3---------------|

[Outro]
G   C   G 

C           D
Jedn Daag ä Fescht
C              D
Ich hab n Hufä Gäscht
C              D
S'Lebäisch nit schwer
                 G
Als Lotto-Millionär

            
            
Suggest correction
Creating personal tab
Creating personal tab
You can edit any tab online and save it as your Personal.

You can edit, replace or remove any tab part or add personal notes – all changes will be seen only by you.

Personal tabs can be accessed anytime from any device, even offline.
Learn more »
Give kudos to tab author, rate the tab!
1 2 3 4 5
comments
print report bad tab
guest
You may want to rate the tab now too:
select rating
Wanna post a correction for this tab? Suggest correction