Oops, an error
Loading. Please wait.

Šťastný Nový Rok tab

19 views 1 this week
no commentswrite comment
1 2 3 4 5
3 more votes to show rating
add to favorites
×
Save as Personal and add changes to this tab that will be seen only by you. Learn more ›
×
You can save this tab as Personal to edit and correct it or add notes. All changes will be seen only by you. Learn more »
launch autoscroll
font size
0
reset
how to read this tab
guitar tuner
edit
Autoscroll
slow
fast
+/-
esc
set tempo
stop
Author
Difficulty
[Intro]

Solo guitar   
  E              Am           E              Am            C
e|-------------|-------------|--------------|-------------|------------------|
B|-1--1----1---|--4--3b4-----|--1--1----1---|--4--3b4-----|------------------|
G|-------------|-------------|--------------|-------------|------------------|
D|-------------|-------------|--------------|-------------|------------------|
A|-------------|-------------|--------------|-------------|----3-------------|
E|-------------|-------------|--------------|-------------|------------------|

Rhythm guitar

e|--0-0--0-0---|--0-0--0-0---|--0-0--0-0----|--0-0--0-0---|---0-0---0-0------|
B|--0-0--0-0---|--1-1--1-1---|--0-0--0-0----|--1-1--1-1---|---1-1---1-1------|
G|--1-1--1-1---|--2-2--2-2---|--1-1--1-1----|--2-2--2-2---|---0-0---0-0------|
D|--2-2--2-2---|--2-2--2-2---|--2-2--2-2----|--2-2--2-2---|---2-2---2-2------|
A|--2-2--2-2---|--0-0--0-0---|--2-2--2-2----|--0-0--0-0---|---3-3---3-3------|
E|--0-0--0-0---|-------------|--0-0--0-0----|-------------|------------------|

Solo guitar
  G             Am            N.C.
e|-------------|-------------|--------------|-------------|------------------|
B|-------------|-------------|--------------|-------------|------------------|
G|----0--------|-------------|--------------|-------------|------------------|
D|-------------|-------------|--------------|-------------|------------------|
A|-------------|---1--0------|--------------|-------------|------------------|
E|-------------|-------------|--5-----4-----|--3-----2----|--1------0--------|

Rhythm guitar

e|--3-3--3-3---|--0-0--0-0---|--------------|-------------|------------------|
B|--3-3--3-3---|--1-1--1-1---|--------------|-------------|------------------|
G|--0-0--0-0---|--2-2--2-2---|--------------|-------------|------------------|
D|--0-0--0-0---|--2-2--2-2---|--------------|-------------|------------------|
A|--2-2--2-2---|--0-0--0-0---|--------------|-------------|------------------|
E|--3-3--3-3---|-------------|--------------|-------------|------------------|


[Verse]

Solo guitar
  E               Am                  E                   Am
e|---------------|-------------------|-------------------|-------------------|
B|---------------|-------------------|-------------------|-------------------|
G|---------------|-------------------|-------------------|-------------------|
D|---------------|-------------------|-------------------|-------------------|
A|---------------|----------0--------|-------------------|--------0----------|
E|--0------------|-------------------|----------0--------|-------------------|

  C                G                  Am
e|---------------|-------------------|-------------------|-------------------|
B|---------------|-------------------|-------------------|-------------------|
G|---------------|--------0----------|-------------------|-------------------|
D|---------------|-------------------|-------------------|-------------------|
A|-----3---------|-------------------|----1-------0------|-------------------|
E|---------------|-------------------|-------------------|-------------------|


[Chorus]

Solo guitar
  A                  G#                 F#                   F
e|-5-5-5-5-5-6-7-6--|-4-4-4-4-4-5-6-5--|-2---2---2---3---2--|------1-------0----|
B|------------------|------------------|--------------------|-------------------|
G|------------------|------------------|--------------------|-------------------|
D|------------------|------------------|--------------------|-------------------|
A|------------------|------------------|--------------------|-------------------|
E|------------------|------------------|--------------------|-------------------|

Rhythm guitar

e|-5-5-5-5-5-5-5-5--|-4-4-4-4-4-4-4-4--|-2-2-2-2-2-2-2-2----|-1-1-1-1-1-1-1-1---|
B|-5-5-5-5-5-5-5-5--|-4-4-4-4-4-4-4-4--|-2-2-2-2-2-2-2-2----|-1-1-1-1-1-1-1-1---|
G|-6-6-6-6-6-6-6-6--|-5-5-5-5-5-5-5-5--|-3-3-3-3-3-3-3-3----|-2-2-2-2-2-2-2-2---|
D|-7-7-7-7-7-7-7-7--|-6-6-6-6-6-6-6-6--|-4-4-4-4-4-4-4-4----|-3-3-3-3-3-3-3-3---|
A|-7-7-7-7-7-7-7-7--|-6-6-6-6-6-6-6-6--|-4-4-4-4-4-4-4-4----|-3-3-3-3-3-3-3-3---|
E|-5-5-5-5-5-5-5-5--|-4-4-4-4-4-4-4-4--|-2-2-2-2-2-2-2-2----|-1-1-1-1-1-1-1-1---|

Solo guitar
  A                  G#                 F#                   B  
e|-5-5-5-5-5-6-7-6--|-4-4-4-4-4-5-6-5--|-2---2---2---3---2--|-----7----7--------|
B|------------------|------------------|--------------------|-------------------|
G|------------------|------------------|--------------------|-------------------|
D|------------------|------------------|--------------------|-------------------|
A|------------------|------------------|--------------------|-------------------|
E|------------------|------------------|--------------------|-------------------|

Rhythm guitar

e|-5-5-5-5-5-5-5-5--|-4-4-4-4-4-4-4-4--|-2-2-2-2-2-2-2-2----|-7-7-7-7-7-7-7-7---|
B|-5-5-5-5-5-5-5-5--|-4-4-4-4-4-4-4-4--|-2-2-2-2-2-2-2-2----|-7-7-7-7-7-7-7-7---|
G|-6-6-6-6-6-6-6-6--|-5-5-5-5-5-5-5-5--|-3-3-3-3-3-3-3-3----|-8-8-8-8-8-8-8-8---|
D|-7-7-7-7-7-7-7-7--|-6-6-6-6-6-6-6-6--|-4-4-4-4-4-4-4-4----|-9-9-9-9-9-9-9-9---|
A|-7-7-7-7-7-7-7-7--|-6-6-6-6-6-6-6-6--|-4-4-4-4-4-4-4-4----|-9-9-9-9-9-9-9-9---|
E|-5-5-5-5-5-5-5-5--|-4-4-4-4-4-4-4-4--|-2-2-2-2-2-2-2-2----|-7-7-7-7-7-7-7-7---|

[Solo]

Solo guitar   
  E              Am           E              Am            C
e|-------------|-------------|--------------|-------------|------------------|
B|-1--1----1---|--4--3b4-----|--1--1----1---|--4--3b4-----|--1--1---1---4--3-|
G|-------------|-------------|--------------|-------------|------------------|
D|-------------|-------------|--------------|-------------|------------------|
A|-------------|-------------|--------------|-------------|------------------|
E|-------------|-------------|--------------|-------------|------------------|

Rhythm guitar

e|--0-0--0-0---|--0-0--0-0---|--0-0--0-0----|--0-0--0-0---|---0-0---0-0------|
B|--0-0--0-0---|--1-1--1-1---|--0-0--0-0----|--1-1--1-1---|---1-1---1-1------|
G|--1-1--1-1---|--2-2--2-2---|--1-1--1-1----|--2-2--2-2---|---0-0---0-0------|
D|--2-2--2-2---|--2-2--2-2---|--2-2--2-2----|--2-2--2-2---|---2-2---2-2------|
A|--2-2--2-2---|--0-0--0-0---|--2-2--2-2----|--0-0--0-0---|---3-3---3-3------|
E|--0-0--0-0---|-------------|--0-0--0-0----|-------------|------------------|

Solo guitar  
 G              Am           A               Dm            A
e|-------------|-------------|--5--5----5---|---8---7b8---|---5--5----5------|
B|--6---4---3--|----1--------|--------------|-------------|------------------|
G|-------------|-------------|--------------|-------------|------------------|
D|-------------|-------------|--------------|-------------|------------------|
A|-------------|-------------|--------------|-------------|------------------|
E|-------------|-------------|--------------|-------------|------------------|

 Rhythm guitar

e|--3-3--3-3---|--0-0--0-0---|--5-5--5-5----|--5-5--5-5---|---5-5---5-5------|
B|--3-3--3-3---|--1-1--1-1---|--5-5--5-5----|--6-6--6-6---|---5-5---5-5------|
G|--0-0--0-0---|--2-2--2-2---|--6-6--6-6----|--7-7--7-7---|---6-6---6-6------|
D|--0-0--0-0---|--2-2--2-2---|--7-7--7-7----|--7-7--7-7---|---7-7---7-7------|
A|--2-2--2-2---|--0-0--0-0---|--7-7--7-7----|--5-5--5-5---|---7-7---7-7------|
E|--3-3--3-3---|-------------|--5-5--5-5----|-------------|---5-5---5-5------|

 Solo guitar

 Dm              F           C              Dm            
e|--8----7b8---|-5-5--5--8-7-|---10---8--7--|-----5-------|------------------|
B|-------------|-------------|--------------|-------------|------------------|
G|-------------|-------------|--------------|-------------|------------------|
D|-------------|-------------|--------------|-------------|------------------|
A|-------------|-------------|--------------|-------------|------------------|
E|-------------|-------------|--------------|-------------|------------------|

 Rhythm guitar

e|--5-5--5-5---|--5-5--5-5---|--8-8--8-8----|--5-5--5-5---|---5-5---5-5------|
B|--6-6--6-6---|--6-6--6-6---|--8-8--8-8----|--6-6--6-6---|---6-6---6-6------|
G|--7-7--7-7---|--5-5--5-5---|--5-5--5-5----|--7-7--7-7---|---7-7---7-7------|
D|--7-7--7-7---|--7-7--7-7---|--5-5--5-5----|--7-7--7-7---|---7-7---7-7------|
A|--5-5--5-5---|--8-8--8-8---|--7-7--7-7----|--5-5--5-5---|---5-5---5-5------|
E|-------------|-------------|--8-8--8-8----|-------------|------------------|


[Outro = last chorus]

Solo guitar
  A                  G#                 F#                   F
e|-5-5-5-5-5-6-7-6--|-4-4-4-4-4-5-6-5--|-2---2---2---3---2--|------1-------0----|
B|------------------|------------------|--------------------|-------------------|
G|------------------|------------------|--------------------|-------------------|
D|------------------|------------------|--------------------|-------------------|
A|------------------|------------------|--------------------|-------------------|
E|------------------|------------------|--------------------|-------------------|

Rhythm guitar

e|-5-5-5-5-5-5-5-5--|-4-4-4-4-4-4-4-4--|-2-2-2-2-2-2-2-2----|-1-1-1-1-1-1-1-1---|
B|-5-5-5-5-5-5-5-5--|-4-4-4-4-4-4-4-4--|-2-2-2-2-2-2-2-2----|-1-1-1-1-1-1-1-1---|
G|-6-6-6-6-6-6-6-6--|-5-5-5-5-5-5-5-5--|-3-3-3-3-3-3-3-3----|-2-2-2-2-2-2-2-2---|
D|-7-7-7-7-7-7-7-7--|-6-6-6-6-6-6-6-6--|-4-4-4-4-4-4-4-4----|-3-3-3-3-3-3-3-3---|
A|-7-7-7-7-7-7-7-7--|-6-6-6-6-6-6-6-6--|-4-4-4-4-4-4-4-4----|-3-3-3-3-3-3-3-3---|
E|-5-5-5-5-5-5-5-5--|-4-4-4-4-4-4-4-4--|-2-2-2-2-2-2-2-2----|-1-1-1-1-1-1-1-1---|

Solo guitar
  A                  G#                 F#                   Am       Gm          Fm       F 
e|-5-5-5-5-5-6-7-6--|-4-4-4-4-4-5-6-5--|-2---2---2---3---2--|--5--5----3--3-----|---1--1----1--1--|
B|------------------|------------------|--------------------|-------------------|-----------------|
G|------------------|------------------|--------------------|-------------------|-----------------|
D|------------------|------------------|--------------------|-------------------|-----------------|
A|------------------|------------------|--------------------|-------------------|-----------------|
E|------------------|------------------|--------------------|-------------------|-----------------|
                       D7
e|--5-5--5----8--7--|---10-------------|
B|------------------|---13-------------|
G|------------------|---11-------------|
D|------------------|---10-------------|
A|------------------|---12-------------|
E|------------------|---10-------------|

Rhythm guitar

e|-5-5-5-5-5-5-5-5--|-4-4-4-4-4-4-4-4--|-2-2-2-2-2-2-2-2----|--5--5----3--3-----|---1--1----1--1--|
B|-5-5-5-5-5-5-5-5--|-4-4-4-4-4-4-4-4--|-2-2-2-2-2-2-2-2----|--5--5----3--3-----|---1--1----1--1--|
G|-6-6-6-6-6-6-6-6--|-5-5-5-5-5-5-5-5--|-3-3-3-3-3-3-3-3----|--6--6----4--4-----|---1--1----2--2--|
D|-7-7-7-7-7-7-7-7--|-6-6-6-6-6-6-6-6--|-4-4-4-4-4-4-4-4----|--7--7----5--5-----|---3--3----3--3--|
A|-7-7-7-7-7-7-7-7--|-6-6-6-6-6-6-6-6--|-4-4-4-4-4-4-4-4----|--7--7----5--5-----|---3--3----3--3--|
E|-5-5-5-5-5-5-5-5--|-4-4-4-4-4-4-4-4--|-2-2-2-2-2-2-2-2----|--5--5----3--3-----|---1--1----1--1--|

e|---1--1-----------|---10-------------|
B|---1--1-----------|---13-------------|
G|---2--2-----------|---11-------------|
D|---3--3-----------|---10-------------|
A|---3--3-----------|---12-------------|
E|---1--1-----------|---10-------------|



************************************


| b   Bend


************************************
Suggest correction
Creating personal tab
Creating personal tab
You can edit any tab online and save it as your Personal.

You can edit, replace or remove any tab part or add personal notes – all changes will be seen only by you.

Personal tabs can be accessed anytime from any device, even offline.
Learn more »
Give kudos to tab author, rate the tab!
1 2 3 4 5
comments
print report bad tab
guest
You may want to rate the tab now too:
select rating
Wanna post a correction for this tab? Suggest correction