Oops, an error
Loading. Please wait.

Mystère Et Suspense Acoustic tab

58 views 1 this week
no commentswrite comment
1 2 3 4 5
3 more votes to show rating
add to favorites
×
Save as Personal and add changes to this tab that will be seen only by you. Learn more ›
×
You can save this tab as Personal to edit and correct it or add notes. All changes will be seen only by you. Learn more »
launch autoscroll
font size
0
reset
how to read this tab
guitar tuner
edit
Autoscroll
slow
fast
+/-
esc
set tempo
stop
Author
[Intro]
e|------3-------------3--------------1-------------------------6-----------------|
B|------4-------------3--------------1-------------------4-----------4-----------|
G|------5-------------3--------------2-------------5-----------------------------|
D|------5-------------5--------------3-------------------------------------------|
A|------3-------------5--------------3-------------------------------------------|
E|------3-------------3--------------1-------------------------------------------|

C'est pour nos familles On sais d'où on vient sans savoir où on va 
e|------3-------------3--------------1-------------1-----------------------------|
B|------4-------------3--------------1-------------1-----------------------------|
G|------5-------------3--------------2-------------2-----------------------------|
D|------5-------------5--------------3-------------3-----------------------------|
A|------3-------------5--------------3-------------3-----------------------------|
E|------3-------------3--------------1-------------1-----------------------------|

[Verse]
Notre issue finale seul l'avenir le dira Dieu seul sait comment ça s'finira ou négociera Mystère et
e|------3-------------3--------------1-------------------------6----------------|
B|------4-------------3--------------1-------------------4-----------4----------|
G|------5-------------3--------------2-------------5----------------------------|
D|------5-------------5--------------3------------------------------------------|
A|------3-------------5--------------3------------------------------------------|
E|------3-------------3--------------1------------------------------------------|

 suspens Soit on colle,soit on peine,s'meurt à fonder une famille au top Ou à laisser une femme veuve et 
e|------3-------------3--------------1-------------1-----------------------------|
B|------4-------------3--------------1-------------1-----------------------------|
G|------5-------------3--------------2-------------2-----------------------------|
D|------5-------------5--------------3-------------3-----------------------------|
A|------3-------------5--------------3-------------3-----------------------------|
E|------3-------------3--------------1-------------1-----------------------------|

toute une floppée de petits Sats derrière La vie tiens à peu de choses Cette phrase pourrait être ma dernière 
e|------3-------------3--------------1-------------------------6----------------|
B|------4-------------3--------------1-------------------4-----------4----------|
G|------5-------------3--------------2-------------5----------------------------|
D|------5-------------5--------------3------------------------------------------|
A|------3-------------5--------------3------------------------------------------|
E|------3-------------3--------------1------------------------------------------|

Quant j'quitte mes gars Qui dit que j'vais les revoir J'suis pas à l'abri d'la bavure Du mec qui me dis 
                                                                                              faire son devoir
e|------3-------------3--------------1-------------1-----------------------------|
B|------4-------------3--------------1-------------1-----------------------------|
G|------5-------------3--------------2-------------2-----------------------------|
D|------5-------------5--------------3-------------3-----------------------------|
A|------3-------------5--------------3-------------3-----------------------------|
E|------3-------------3--------------1-------------1-----------------------------|

Où d'une fan qui aurait pété les plombs Voudrait m'buter comme John Lennon, Martin Luther ou Malcom 
e|------3-------------3--------------1-------------------------6----------------|
B|------4-------------3--------------1-------------------4-----------4----------|
G|------5-------------3--------------2-------------5----------------------------|
D|------5-------------5--------------3------------------------------------------|
A|------3-------------5--------------3------------------------------------------|
E|------3-------------3--------------1------------------------------------------|

Tout n'est qu'incertitude c'est l'embrouille dur de voir clair au milieu de ces turpitudes 
e|------3-------------3--------------1-------------1-----------------------------|
B|------4-------------3--------------1-------------1-----------------------------|
G|------5-------------3--------------2-------------2-----------------------------|
D|------5-------------5--------------3-------------3-----------------------------|
A|------3-------------5--------------3-------------3-----------------------------|
E|------3-------------3--------------1-------------1-----------------------------|

Dédié à ceux et celles qui mènent des vies d'chiens ou d'chiennes J'rapporte la mienne et ta l'impression que 
                                                                                           j'raconte la tienne
e|------3-------------3--------------1-------------------------6----------------|
B|------4-------------3--------------1-------------------4-----------4----------|
G|------5-------------3--------------2-------------5----------------------------|
D|------5-------------5--------------3------------------------------------------|
A|------3-------------5--------------3------------------------------------------|
E|------3-------------3--------------1------------------------------------------|

C'est l'effet FF, des gars plus vrais qu'nature Ce côté pied sur Terre et à la fois immature 
e|------3-------------3--------------1-------------1-----------------------------|
B|------4-------------3--------------1-------------1-----------------------------|
G|------5-------------3--------------2-------------2-----------------------------|
D|------5-------------5--------------3-------------3-----------------------------|
A|------3-------------5--------------3-------------3-----------------------------|
E|------3-------------3--------------1-------------1-----------------------------|

Quand j'planne comme Bob Marley J'sais plus si c'est moi ou la rue qui est en train d'parler 
e|------3-------------3--------------1-------------------------6----------------|
B|------4-------------3--------------1-------------------4-----------4----------|
G|------5-------------3--------------2-------------5----------------------------|
D|------5-------------5--------------3------------------------------------------|
A|------3-------------5--------------3------------------------------------------|
E|------3-------------3--------------1------------------------------------------|

J'compte plus voir la vie réaliser mes voeux Mais si j'crève j'aurais vu naître le "Hors-Série Volume 1" et 
                                                                                                "Si Dieu Veut"
e|------3-------------3--------------1-------------1-----------------------------|
B|------4-------------3--------------1-------------1-----------------------------|
G|------5-------------3--------------2-------------2-----------------------------|
D|------5-------------5--------------3-------------3-----------------------------|
A|------3-------------5--------------3-------------3-----------------------------|
E|------3-------------3--------------1-------------1-----------------------------|

Sur ce avant de dire au r'voir à jamais J'ai sûrement tout un tas d'trucs à connaître, d'épreuves à surmonter 
e|------3-------------3--------------1-------------------------6----------------|
B|------4-------------3--------------1-------------------4-----------4----------|
G|------5-------------3--------------2-------------5----------------------------|
D|------5-------------5--------------3------------------------------------------|
A|------3-------------5--------------3------------------------------------------|
E|------3-------------3--------------1------------------------------------------|

Peut importe tant que les miens sont à mes côtés J'ferais peut-être partis de ceux sur qu'il faudra compter 
e|------3-------------3--------------1-------------1-----------------------------|
B|------4-------------3--------------1-------------1-----------------------------|
G|------5-------------3--------------2-------------2-----------------------------|
D|------5-------------5--------------3-------------3-----------------------------|
A|------3-------------5--------------3-------------3-----------------------------|
E|------3-------------3--------------1-------------1-----------------------------|

[Chorus]
J'vais là où la vie m'mène Là où mes pieds m'trainnent J'viens d'là où les gens disent tous emmerder l'système
e|------3-------------3--------------1-------------------------6----------------|
B|------4-------------3--------------1-------------------4-----------4----------|
G|------5-------------3--------------2-------------5----------------------------|
D|------5-------------5--------------3------------------------------------------|
A|------3-------------5--------------3------------------------------------------|
E|------3-------------3--------------1------------------------------------------|

 Peut importe la manière forte ou douce Chacun essaie de survivre conscient qu'on y reste tous 
e|------3-------------3--------------1-------------1-----------------------------|
B|------4-------------3--------------1-------------1-----------------------------|
G|------5-------------3--------------2-------------2-----------------------------|
D|------5-------------5--------------3-------------3-----------------------------|
A|------3-------------5--------------3-------------3-----------------------------|
E|------3-------------3--------------1-------------1-----------------------------|

J'vais là où la vie m'mène Là où mes pieds m'trainnent J'viens d'là où les gens disent tous emmerder l'système
e|------3-------------3--------------1-------------------------6----------------|
B|------4-------------3--------------1-------------------4-----------4----------|
G|------5-------------3--------------2-------------5----------------------------|
D|------5-------------5--------------3------------------------------------------|
A|------3-------------5--------------3------------------------------------------|
E|------3-------------3--------------1------------------------------------------|

 Croire en l'argent, son pouvoir, le respect qu'il dégage Puiser la force dans l'amour la haine la peine ou la
                                                                                                          rage
e|------3-------------3--------------1-------------1-----------------------------|
B|------4-------------3--------------1-------------1-----------------------------|
G|------5-------------3--------------2-------------2-----------------------------|
D|------5-------------5--------------3-------------3-----------------------------|
A|------3-------------5--------------3-------------3-----------------------------|
E|------3-------------3--------------1-------------1-----------------------------|

[Verse]
Il fallait que je maîtrise les mots pour m'défendre car ce sont des munitions 
Si t'as pas les mots t'es baisé 
Fallait que je brûle mes illusions 
Fallait bien que j'les cries aussi c'est ça le drâme 
On t'écoutes quand tu fais du bruit qu'tu casses ou qu'tu pointes une arme 
La mienne un Mic, j'fume la vie comme Spike 
Fumes la nuit non stop fallait que j'décompresse 
Nom d'code: Don Cho' 
Fallait que j'le dise haut 
Fallait que j'vise 
On avait allumé un feu fallait qu'j'l'attise 
Fallait qu'j'ai un but fallait qu'j'fasse mon truc 
Y a pas d'magie 
Même si j'parle au passé c'est du futur qu'il s'agit 
Il fallait pas que je sois trop feignant car je ne suis pas né dans la soie 
Fallait qu'j'y croie et pas en me plaignant, mon prénom c'est François 
Le régnant serein, fallait bien qu'jparte 
Fallait que j'revienne les mains pleines 
FF fallait que j'le marque 
Fallait qu'on vienne et qu'on démontre à n'importe quel endroit qu'ce soit 
Fallait qu'tu viennes à notre rencontre 
Peut importe quand peut-être ce soir 
Fallait qu'on garde espoir c'est tout c'qu'on pouvait faire 
Fallait qu'on soit sincère pas dire tout c'qui pouvait plaire 
Fallait qu'j'défende mon avis mon corps mon humour 
Ma famille mes amis jusqu'à la mort mon amour 
Il le fallait et tant mieux s'il le fallait bien 
J'reste anxieux ne croyez pas que pour moi tout allait bien 
Tapé m'en 5 mais pas dans les yeux si vous me recevez bien 

[Chorus]
J'vais là où la vie m'mène Là où mes pieds m'trainnent J'viens d'là où les gens disent tous emmerder l'système
e|------3-------------3--------------1-------------------------6----------------|
B|------4-------------3--------------1-------------------4-----------4----------|
G|------5-------------3--------------2-------------5----------------------------|
D|------5-------------5--------------3------------------------------------------|
A|------3-------------5--------------3------------------------------------------|
E|------3-------------3--------------1------------------------------------------|

 Peut importe la manière forte ou douce Chacun essaie de survivre conscient qu'on y reste tous 
e|------3-------------3--------------1-------------1-----------------------------|
B|------4-------------3--------------1-------------1-----------------------------|
G|------5-------------3--------------2-------------2-----------------------------|
D|------5-------------5--------------3-------------3-----------------------------|
A|------3-------------5--------------3-------------3-----------------------------|
E|------3-------------3--------------1-------------1-----------------------------|

J'vais là où la vie m'mène Là où mes pieds m'trainnent J'viens d'là où les gens disent tous emmerder l'système
e|------3-------------3--------------1-------------------------6----------------|
B|------4-------------3--------------1-------------------4-----------4----------|
G|------5-------------3--------------2-------------5----------------------------|
D|------5-------------5--------------3------------------------------------------|
A|------3-------------5--------------3------------------------------------------|
E|------3-------------3--------------1------------------------------------------|

 Croire en l'argent, son pouvoir, le respect qu'il dégage Puiser la force dans l'amour la haine la peine ou la
rage 
e|------3-------------3--------------1-------------1-----------------------------|
B|------4-------------3--------------1-------------1-----------------------------|
G|------5-------------3--------------2-------------2-----------------------------|
D|------5-------------5--------------3-------------3-----------------------------|
A|------3-------------5--------------3-------------3-----------------------------|
E|------3-------------3--------------1-------------1-----------------------------|

[Verse]
Sommes-nous faux ou vrais 
A ton avis bons ou mauvais 
Demande à ton ami peut-être qu'il nous connaît? 
Entre le bien et le mal on navigue 
On s'dit que tout est écrit, et qu'c'est la vie quoiqu'il arrive 
Le système abîme les nôtres donc la haine les anime 
Et c'est normal si tu le ressent lorsqu'on rime 
Certains trouvent incompréhensible 
Normal, c'n'est pas eux la cible 
Au tribunal, c'est jamais leurs noms qu'on cite 
Et non jamais eu besoin de voler pour vivre 
Ou connaître le mal-être à cause d'une vie sans équilibre 
Ou se droguer pour se sentir libre 
Ou se mettre ivre pour oublier le combat qui s'livre 
Tout ce que je raconte est minime 
Je ne suis ni un caïd, ni un saint, ni accro à la cocaïne 
J'suis simple comme mes frères et les tiens sans rire 
Et j'sais qu'on nourrit tous le mal et fait la grève de la faim 
Ou bien comme ali Brahim 
J'vais là où la vie m'mène, là où mes pieds m'trainnent 
J'viens d'la où on emmerde l'système 
De là où les rues craignent, de là où la haine impreigne 
De là où les gens enfreignent, de là où le bien et le mal reignent 

[Verse]
Bref je vois que c'est les même histoires chez les riches et les pauvres 
Deal de shit et d'gave et de jeunes qui s'gachent 
Dans certain cas c'est un gag, qu'on ait des parents placé ou pas 
C'est leur égo qu'on nargue et là y'a plus de blancs et de nègres 
Plus ??? celui qui roule en cabriolet 
Ce même dégoût quand c'est ta chair qui vient te cambrioler 
meurt d'une seringue au bras et complètement isolé 
Ça m'rend fou d'les voir s'abîmer on est désolés 
On a tous des ambitions différentes 
Respectons nos différences 
Dans nos rues peu on les bonnes références 
Conséquence: c'est la merde 
Et on s'y accommode 
On vit sur les nerfs 
Et y'a plus rien de commode 
C'est les sous qui tiennent les commandes 
Pourquoi jouer le voyou quand t'as tout c'que tu demandes 
Chez nous y'a pas d'secret le pognon régit tout 
Les jeux sont fait et en fin d'course il nous désunit tous 

[Chorus]
J'vais là où la vie m'mène Là où mes pieds m'trainnent J'viens d'là où les gens disent tous emmerder l'système
e|------3-------------3--------------1-------------------------6----------------|
B|------4-------------3--------------1-------------------4-----------4----------|
G|------5-------------3--------------2-------------5----------------------------|
D|------5-------------5--------------3------------------------------------------|
A|------3-------------5--------------3------------------------------------------|
E|------3-------------3--------------1------------------------------------------|

 Peut importe la manière forte ou douce Chacun essaie de survivre conscient qu'on y reste tous 
e|------3-------------3--------------1-------------1-----------------------------|
B|------4-------------3--------------1-------------1-----------------------------|
G|------5-------------3--------------2-------------2-----------------------------|
D|------5-------------5--------------3-------------3-----------------------------|
A|------3-------------5--------------3-------------3-----------------------------|
E|------3-------------3--------------1-------------1-----------------------------|

J'vais là où la vie m'mène Là où mes pieds m'trainnent J'viens d'là où les gens disent tous emmerder l'système
e|------3-------------3--------------1-------------------------6----------------|
B|------4-------------3--------------1-------------------4-----------4----------|
G|------5-------------3--------------2-------------5----------------------------|
D|------5-------------5--------------3------------------------------------------|
A|------3-------------5--------------3------------------------------------------|
E|------3-------------3--------------1------------------------------------------|

 Croire en l'argent, son pouvoir, le respect qu'il dégage Puiser la force dans l'amour la haine la peine ou la
                                                                                                          rage
e|------3-------------3--------------1-------------1-----------------------------|
B|------4-------------3--------------1-------------1-----------------------------|
G|------5-------------3--------------2-------------2-----------------------------|
D|------5-------------5--------------3-------------3-----------------------------|
A|------3-------------5--------------3-------------3-----------------------------|
E|------3-------------3--------------1-------------1-----------------------------|

            
            
Suggest correction
Creating personal tab
Creating personal tab
You can edit any tab online and save it as your Personal.

You can edit, replace or remove any tab part or add personal notes – all changes will be seen only by you.

Personal tabs can be accessed anytime from any device, even offline.
Learn more »
Give kudos to tab author, rate the tab!
1 2 3 4 5
comments
print report bad tab
guest
You may want to rate the tab now too:
select rating
Wanna post a correction for this tab? Suggest correction