Oops, an error
Loading. Please wait.
We have Chord Pro version of Açúcar Ou Adoçante.
It's the closest thing you can get to the original song and it has interactive parts. Check out the tab »
×
by Cicero
127 views 6 this week
no commentswrite comment
1 2 3 4 5
2 more votes to show rating
add to favorites
×
Save as Personal and add changes to this tab that will be seen only by you. Learn more ›
×
You can save this tab as Personal to edit and correct it or add notes. All changes will be seen only by you. Learn more »
launch autoscroll
font size
0
reset
transpose
0
reset
simplify chords
display chords
guitar tuner
edit
Autoscroll
slow
fast
+/-
esc
set tempo
stop
Strumming
There is no strumming pattern for this song yet. and get +5 IQ
BmArtist: Cícero
Song: Açúcar ou Adoçante?
Album: Canções de Apartamento
Tabbed by: gustavoaraujo999@hotmail.com

**Pra tocar só violão e voz eu tiraria o D do 4o acorde, talvez do 1o também
**Acordes no fim

 
[Intro]
  Bm                                     Em6
e|----------7------------7------------7-|--------------------------------------|
B|-------7--7---------7--7---------7--7-|----------0------------0------------0-|
G|-------7--7---------7--7---------7--7-|-------6--6---------6--6---------6--6-|
D|-------0------------0------------0----|-------5--5---------5--5---------5--5-|
A|--------------------------------------|-------7------------7------------7----|
E|-7--7---------7--7--------7--7--------|-0--0---------0--0---------0--0-------|
  
  Bm/D                                   B9/G
e|-------7------------7------------7----|----------0-----------0-------------0-|
B|-------7--7---------7--7---------7--7-|-------2--2---------2-2----------2--2-|
G|-------7--7---------7--7---------7--7-|-------4--4---------4—4----------4--4-|
D|-0--0-----0---0--0-----0---0--0-----0-|-------0--0---------0-0----------0--0-|
A|--------------------------------------|--------------------------------------|
E|--------------------------------------|-3--3--------3--3--------3--3---------| 


[Verse 1]
Bm
Entra pra ver
             Em6
Como você deixou o lugar
                Bm/D
E o tempo que levou pra arrumar
         B9/G
Aquela gaveta

Bm
Entra pra ver
             Em6
Mas tira o sapato pra entrar
                  Bm/D
cuidado, que eu mudei de lugar
           B9/G
Algumas certezas

           Bm
Pra não te magoar
           Em6
Não tem porquê
                  Bm/D
Pra ajudar teu analista:
    B9/G (hold)
 Desculpa.


[Pre-chorus]
Bm  Em6  Bm/D  B9/G


[Chorus]
         Bm
Mas se você quiser
  A9
alguém pra amar
  Em   Em9 Em7
Ainda

         Bm
Mas se você quiser
  A9
alguém pra amar
  Em   Em9 Em7
Ainda

     G6
Hoje não vai dar
    G/Gb
Não vou estar
     Em
Te indico alguém


[Interlude]
Bm  Em6  Bm/D  B9/G


[Bridge]
    Bm
Mas fica um pouco mais
    Em6
Que tal mais um café?
  Bm/D
Ainda lembra disso?
   (B9/G)
Que bom.


[Percussão]
1 & 2 & 3 & 4 & 5 & 6 & 7 & 8 & 
                              X
  
1 & 2 & 3 & 4 & 5 & 6 & 7 & 8 & 
X                         X   X 


[Chorus 2]
         Bm
Mas se você quiser
  A9
alguém pra amar
  Em   Em9 Em7
Ainda

         Bm
Mas se você quiser
  A9
alguém pra arrumar
  Em   Em9 Em7
Ainda

     G6
Hoje não vai dar
    G/Gb
Não vou estar
     Em   
Te indico alguém




[Intro/verse/pre-chorus/interlude]
  Bm                                      Em6
e|----------7------------7------------7-|--------------------------------------|
B|-------7--7---------7--7---------7--7-|----------0------------0------------0-|
G|-------7--7---------7--7---------7--7-|-------6--6---------6--6---------6--6-|
D|-------0------------0------------0----|-------5--5---------5--5---------5--5-|
A|--------------------------------------|-------7------------7------------7----|
E|-7--7---------7--7--------7--7--------|-0--0---------0--0---------0--0-------|
  
  F#4/D                                  B9/G
e|-------7------------7------------7----|----------0-----------0-------------0-|
B|-------7--7---------7--7---------7--7-|-------2--2---------2-2----------2--2-|
G|-------7--7---------7--7---------7--7-|-------4--4---------4—4----------4--4-|
D|-0--0-----0---0--0-----0---0--0-----0-|-------0--0---------0-0----------0--0-|
A|--------------------------------------|--------------------------------------|
E|--------------------------------------|-3--3--------3--3--------3--3---------|


[Chorus]
  Bm                A9                Em                Em9        Em7
e|-----------------|-0-0-0-0-0-0-0-0-|-0-0-0-0-0-0-0-0-|-0-0-0-0-0-0-0-0-0-|
B|-3-3-3-3-3-3-3-3-|-0-0-0-0-0-0-0-0-|-0-0-0-0-0-0-0-0-|-0-0-0-0-0-0-0-0-0-|
G|-4-4-4-4-4-4-4-4-|-4-4-4-4-4-4-4-4-|-0-0-0-0-0-0-0-0-|-0-0-0-0-0-2-2-2-2-|
D|-4-4-4-4-4-4-4-4-|-2-2-2-2-2-2-2-2-|-5-5-5-5-5-5-5-5-|-4-4-4-4-4-2-2-2-2-|
A|-2-2-2-2-2-2-2-2-|-0-0-0-0-0-0-0-0-|-2-2-2-2-2-2-2-2-|-2-2-2-2-2-2-2-2-2-|
E|-----------------|-----------------|-0-0-0-0-0-0-0-0-|-0-0-0-0-0-0-0-0-0-|

  Bm                A9                Em                Em9        Em7
e|-----------------|-0-0-0-0-0-0-0-0-|-0-0-0-0-0-0-0-0-|-0-0-0-0-0-0-0-0-0-|
B|-3-3-3-3-3-3-3-3-|-0-0-0-0-0-0-0-0-|-0-0-0-0-0-0-0-0-|-0-0-0-0-0-0-0-0-0-|
G|-4-4-4-4-4-4-4-4-|-4-4-4-4-4-4-4-4-|-0-0-0-0-0-0-0-0-|-0-0-0-0-0-2-2-2-2-|
D|-4-4-4-4-4-4-4-4-|-2-2-2-2-2-2-2-2-|-5-5-5-5-5-5-5-5-|-4-4-4-4-4-2-2-2-2-|
A|-2-2-2-2-2-2-2-2-|-0-0-0-0-0-0-0-0-|-2-2-2-2-2-2-2-2-|-2-2-2-2-2-2-2-2-2-|
E|-----------------|-----------------|-0-0-0-0-0-0-0-0-|-0-0-0-0-0-0-0-0-0-|

  G6                G/Gb               Em    +
e|-----------------|-----------------|-0------------------------------------|
B|-----------------|-----------------|-0------------------------------------|
G|-4-4-4-4-4-4-4-4-|-4-4-4-4-4-4-4-4-|-0------------------------------------|
D|-2-2-2-2-2-2-2-2-|-4-4-4-4-4-4-4-4-|-2------------------------------------|
A|-5-5-5-5-5-5-5-5-|-5-5-5-5-5-5-5-5-|-2------------------------------------|
E|-3-3-3-3-3-3-3-3-|-2-2-2-2-2-2-2-2-|-0-----14-----------------------------|

            
            
Suggest correction
Creating personal tab
Creating personal tab
You can edit any tab online and save it as your Personal.

You can edit, replace or remove any tab part or add personal notes – all changes will be seen only by you.

Personal tabs can be accessed anytime from any device, even offline.
Learn more »
Give kudos to tab author, rate the tab!
1 2 3 4 5
comments
print report bad tab
guest
You may want to rate the tab now too:
select rating
Wanna post a correction for this tab? Suggest correction