Oops, an error
Loading. Please wait.

Laiá Laiá chords

by Cicero
22 views 1 this week
no commentswrite comment
1 2 3 4 5
3 more votes to show rating
add to favorites
×
Save as Personal and add changes to this tab that will be seen only by you. Learn more ›
×
You can save this tab as Personal to edit and correct it or add notes. All changes will be seen only by you. Learn more »
launch autoscroll
font size
0
reset
transpose
0
reset
simplify chords
display chords
guitar tuner
edit
Autoscroll
slow
fast
+/-
esc
set tempo
stop
Strumming
There is no strumming pattern for this song yet. and get +5 IQ
Artist: Cícero
Song: Laiá Laiá
Album: Canções de Apartamento
Tabbed by: gustavoaraujo999@hotmail.com
Tuning: Standard (EADGBE)

**Capo 1
**Acordes no fim


[Intro]
  F5                                F7M
e|---0-------0-------0-------0-----|---0-------0-------0--------0-----|
B|-------0------0--------0-------0-|-------0-------0-------0--------0-|
G|---------------------------------|----------------------------------|
D|---------------------------------|-0---0---0---0---0---0---0---0----|
A|---------------------------------|----------------------------------|
E|-0---0---0---0---0---0---0---0---|----------------------------------|

  Bbsus2                            F5
e|---0-------0-------0-------0-----|---0-------0-------0--------0-----|
B|-------0------0--------0-------0-|-------0-------0-------0--------0-|
G|---------------------------------|----------------------------------|
D|---------------------------------|----------------------------------|
A|-0---0---0---0---0---0---0---0---|----------------------------------|
E|---------------------------------|-0---0---0---0---0---0---0---0----|


[Verse 1]
F5
Vamos botar
                     F7M
chapéu de burro na cabeça do rei
                     Bbsus2
Deixar a tristeza no canto e sair
                   F5
Pra batucar na Rio Branco às seis

F5
Vamos cantar
                         F7M
Glórias mofadas de um Braguinha qualquer
                      Bbsus2
Sambar na via, atravessados, alguém deixou, então ta deixado
F5
Não fique aí parado essa é a lei


[Chorus]
       Db7M
Vou pintar um lugar mais bonito
      F5 
Pra fazer meu festival
         Db7M
Quando o carnaval passar
         Bbsus2          F5
Quando o carnaval passar


[Verse 2]
F5
Vamos dançar
            F7M
qualquer coisa é melhor
          Bbsus2
que tristeza, por favor
           F5
Se esqueça


[Chorus 2]
       Db7M
Vou criar um lugar escondido
      F5 
Pra fazer meu recital
          Db7M
Quando o carnaval passar
          Bbsus2
Quando o carnaval passar
            F5
Quando esse escarcéu passar


[Bridge] x3
    Db7M
Lalaiá laiá laiá laiá laiá laiá laiá
    F5
Lalaiá laiá laiá laiá laiá laiá laiá
    Db7M         Bbsus2
Lalaiá laiá laiá laiá laiá laiá laiá
    F5
Lalaiá laiá laiá laiá laiá laiá laiá


[Chorus]
  Db7M                              F5 
e|---0-------0-------0-------0-----|---0-------0-------0--------0-----|
B|-------0------0--------0-------0-|-------0-------0-------0--------0-|
G|---------------------------------|----------------------------------|
D|---------------------------------|----------------------------------|
A|-3---3---3---3---3---3---3---3---|----------------------------------|
E|---------------------------------|-0---0---0---0---0---0---0---0----|

  Db7M             Bbsus2           F5
e|---0-------0-------0-------0-----|---0-------0-------0--------0-----|
B|-------0------0--------0-------0-|-------0-------0-------0--------0-|
G|---------------------------------|----------------------------------|
D|---------------------------------|----------------------------------|
A|-3---3---3---3---0---0---0---0---|----------------------------------|
E|---------------------------------|-0---0---0---0---0---0---0---0----|


            
            
Suggest correction
Creating personal tab
Creating personal tab
You can edit any tab online and save it as your Personal.

You can edit, replace or remove any tab part or add personal notes – all changes will be seen only by you.

Personal tabs can be accessed anytime from any device, even offline.
Learn more »
Give kudos to tab author, rate the tab!
1 2 3 4 5
comments
print report bad tab
guest
You may want to rate the tab now too:
select rating
Wanna post a correction for this tab? Suggest correction