Oops, an error
Loading. Please wait.

João E O Pé De Feijão chords

by Cicero
31 views 1 this week
no commentswrite comment
1 2 3 4 5
3 more votes to show rating
add to favorites
×
Save as Personal and add changes to this tab that will be seen only by you. Learn more ›
×
You can save this tab as Personal to edit and correct it or add notes. All changes will be seen only by you. Learn more »
launch autoscroll
font size
0
reset
transpose
0
reset
simplify chords
display chords
guitar tuner
edit
Autoscroll
slow
fast
+/-
esc
set tempo
stop
Strumming
There is no strumming pattern for this song yet. and get +5 IQ
Artist: Cícero
Song: João e o Pé de Feijão
Album: Canções de Apartamento
Tabbed by: gustavoaraujo999@hotmail.com

      
[Intro]
  Bm                 G                 E5         F#sus4     G          E5
   1 2 3 4 5 6 7 8 | 1 2 3 4 5 6 7 8 | 12345678 | 12345678 |          |          |
e|-----------------|-----------------|----------|----------|----------|----------|
B|-0-----0-------0-|-0-----0-------0-|-0--0---0-|-0----0---|-0--0---0-|-0--0---0-|
G|-----------------|-----------------|----------|----3---3-|----------|----------|
D|-----------------|-----------------|----------|----------|----------|----------|
A|-----------------|-----------------|----------|----------|----------|----------|
E|-7-----7-------7-|-3-----3-------3-|-0--0---0-|-2--2-----|-3--3---3-|-0--0---0-|


[Verse 1]
        Bm    G
Ninguém soube
              E5
que foi morar    longe
F#sus4       G      E 
não, ninguém soube

        Bm      G
Não foi ponto
                 E5
feriado ou descon__forto
F#sus4      G      E5
pra ninguém soube

      Bm    G
Diz a lenda
                       E5
que ele trocou suas cer__tezas
F#sus4      G     E5
por alguns sonhos mágicos


[Interlude 1]
  Bm*        D6         G           F#sus4*    G           E5*
e|----------|----------|-----------|----------|-----------|----------|
B|-0--0---0-|-0--0---0-|-0--0---0--|-0--0---0-|-0--0---0--|-0--0---0-|
G|----------|----------|-----------|----------|-----------|----------|
D|----------|----------|-----------|----------|-----------|----------|
A|-2--2---2/|-5--5---5/|-10-10--10\|-9--9---9/|-10-10--10\|-7--7---7\|
E|----------|----------|-----------|----------|-----------|----------|

e|----------|----------|-----------|----------|-----------|----------|
B|-0--0---0-|-0--0---0-|-0--0---0--|-0--0---0-|-0--0---0--|-0--0---0-|
G|----------|----------|-----------|----------|-----------|----------|
D|----------|----------|-----------|----------|-----------|----------|
A|-2--2---2/|-5--5---5/|-10-10--10\|-9--9---9/|-10-10--10\|-7--7---7\|
E|----------|----------|-----------|----------|-----------|----------|


[Verse 2]
        Bm    G                    E5
Ninguém soube    que ele foi morar
     F#sus4  G    E5
onde ninguém cabe

        Bm    G
Não foi ponto
                  E5
o comércio estava pronto
  F#sus4
e vendeu bem
   G      E5
No dia de São Ninguém


[Interlude 2]
Bm*  D6  G  F#sus4*  G  E5*
Bm*  D6  G  F#sus4*  G  E5*


[Bridge]
  Bm                G                 E5                F#                G*                E5*
e|-----------------|-----------------|-----------------|-----------------|-----------------|-----------------|
B|-8---8-7---7-0---|-5---5-3---3-0---|-5---5-3---3-0---|---0---2---2-3-0-|-0---0-2---2-3-0-|-0---0-2---2-3/--|
G|---0-----0-----0-|---0-----0-----0-|---0-----0-----0-|-3---3---3-------|---0-----0-------|---0-----0-------|
D|-----------------|-----------------|-----------------|-----------------|-----------------|-----------------|
A|-----------------|-----------------|-----------------|-----------------|-----------------|-----------------|
E|-7-----7-----7---|-3-----3-----3---|-0-----0-----0---|-2-----2-----2---|-3-----3-----3---|-0-----0-----0---|

e|-----------------|-----------------|-----------------|-----------------|-----------------|-----------------|
B|-8---8-7---7-0---|-5---5-3---3-0---|-5---5-3---3-0---|---0---2---2-3-0-|-0---0-2---2-3-0-|-0---0-2---2-3/--|
G|---0-----0-----0-|---0-----0-----0-|---0-----0-----0-|-3---3---3-------|---0-----0-------|---0-----0-------|
D|-----------------|-----------------|-----------------|-----------------|-----------------|-----------------|
A|-----------------|-----------------|-----------------|-----------------|-----------------|-----------------|
E|-7-----7-----7---|-3-----3-----3---|-0-----0-----0---|-2-----2-----2---|-3-----3-----3---|-0-----0-----0---|


[Outro]
 Bm       G        E5      F#      G* Em*
Ainda não fazem pessoas de algodão
 Bm       G        E5      F#      G* Em*
Ainda não fazem pessoas de algodão
 Bm       G        E5         F#          G(hold)  E5(hold) 
Ainda não fazem pessoas que enxuguem suas próprias mágoas
Suggest correction
Creating personal tab
Creating personal tab
You can edit any tab online and save it as your Personal.

You can edit, replace or remove any tab part or add personal notes – all changes will be seen only by you.

Personal tabs can be accessed anytime from any device, even offline.
Learn more »
Give kudos to tab author, rate the tab!
1 2 3 4 5
comments
print report bad tab
guest
You may want to rate the tab now too:
select rating
Wanna post a correction for this tab? Suggest correction