Oops, an error
Loading. Please wait.

Erkläre Mir Die Liebe chords

version 2
version 2

Whole song

790 views 9 this week
no commentswrite comment
1 2 3 4 5
1 last vote to show rating
add to favorites
×
Save as Personal and add changes to this tab that will be seen only by you. Learn more ›
×
You can save this tab as Personal to edit and correct it or add notes. All changes will be seen only by you. Learn more »
launch autoscroll
font size
0
reset
transpose
0
reset
simplify chords
display chords
guitar tuner
edit
Autoscroll
slow
fast
+/-
esc
set tempo
stop
Strumming
There is no strumming pattern for this song yet. and get +5 IQ
[Intro]
||: Am | F | C | C :||

[Intro/Verse Picking]

Clean /w Delay
  A5                      F5                        C5                      C5
e|-----------------------|-------------------------|-----------------------|-----------------------|
B|------10---------------|-------------------------|-----------------------|-----------------------|
G|----9----9---9---9---9-|-------10----------------|------5----------------|------5----------------|
D|--7--------7---7---7---|----10---10---10--10--10-|----5---5----5---5---5-|----5---5----5---5---5-|
A|-----------------------|--8---------8----8---8---|--3--------3---3---3---|--3--------3---3---3---|
E|-----------------------|-------------------------|-----------------------|-----------------------|

[Verse 1]
Am                       F                             C            C
   Wie zwei Köter unterm Himmel, immer weiter Richtung Nacht.
Am                       F                             C            C
   So verloren, so verschieden, weißt du was du eigentlich willst?

[Bridge]
Am               F           C           C
   Wann kommst du mich holen, aus dieser Dunkelheit?
Am        F        C           C
   Sag wo, wo bist du?

[Chorus]
  Am    F       C     C
Erkläre mir das Leben.
    Am         F      C     C
Ich weiß nicht wie es geht.

[Verse 2]
Am                    F                                C            C
   Wie zwei Füchse zu Polarmeer, immer weiter Richtung Nacht.
Am                       F                                  C            C
   Hab so lange nicht geschlafen,weißt du was du eigentlich brauchst?

[Bridge]
Am               F           C           C
   Wann kommst du mich holen, im heißen Julischnee?
Am         F          C           C
   Zweimal Sommer und zurück.

[Chorus]
  Am    F       C     C
Erkläre mir das Leben.
    Am         F      C     C
Ich weiß nicht wie es geht.
  Am       F       C     C
Erzähl mir von der Liebe. 
    Am      F     C      C
Ich hab sie nie gesehen.

[Chorus Melodie]
e|----------------------|----------------------|----------------------|------10----12--------|
B|------13----12--------|------13----12--------|------13----12--------|-----------------12---|  
G|-----------------9----|-----------------9----|-----------------9----|----------------------| 
D|----------------------|----------------------|----------------------|----------------------|
A|----------------------|----------------------|----------------------|----------------------|
E|----------------------|----------------------|----------------------|----------------------|

[B-Part]
| F | C | Dsus4 | Am |
| F | C | Dsus4 | Dsus4 |

F               C          Dsus4      Am
  Wann kommst du mich holen,im heißen Julischnee? 
F         C            Dsus4      Dsus4
  Zweimal Sommer und zurück.
 
[Instrumental/Interlude]
| Am | F | C | C |
 
[Chorus]
  Am       F          C      C
Erzähl mir von deinem Leben
    Am       F              C      C
Ich hab dich so noch nie gesehen. 
  Am    F       C     C
Erkläre mir die Liebe.
    Am      F              C      C
Ich hab sie immer schon verloren.

            
            
Suggest correction
Creating personal tab
Creating personal tab
You can edit any tab online and save it as your Personal.

You can edit, replace or remove any tab part or add personal notes – all changes will be seen only by you.

Personal tabs can be accessed anytime from any device, even offline.
Learn more »
Give kudos to tab author, rate the tab!
1 2 3 4 5
comments
print report bad tab
guest
You may want to rate the tab now too:
select rating
Wanna post a correction for this tab? Suggest correction