Oops, an error
Loading. Please wait.

Vor Í Vaglaskógi chords

version 2
version 2

Whole song

  • The absence of chords of the Kaleo version of Vor ... Show more
  • This is a fingerpicking version of Vor i Vaglaskog... Show more
  • Includes intro tab and simplified chords.

Interactive

by Kaleo
3,103 views 135 this week
2 commentsread comments
1 2 3 4 5
x 5
add to favorites
×
Save as Personal and add changes to this tab that will be seen only by you. Learn more ›
×
You can save this tab as Personal to edit and correct it or add notes. All changes will be seen only by you. Learn more »
launch autoscroll
font size
0
reset
transpose
0
reset
simplify chords
display chords
guitar tuner
edit
Autoscroll
slow
fast
+/-
esc
set tempo
stop
About this tab version
This is a fingerpicking version of Vor i Vaglaskogi combining chords with the riffs and the "solo". For the original version this tab is based on check https://www.youtube.com/watch?v=ABx6Zdl1aIQ. Was this info helpful? Yes No
Strumming
There is no strumming pattern for this song yet. and get +5 IQ
Intro&Verse         Chorus             Instrumental
------------        -----------        ---------------
Em    0xx000        D    xx0232        Em   0xx000
C     x3x010        G    3xx003        G    3xx003
Am    x0x210        B    x2x442        A    x0x220
B7    x2x202        B/F# 2xx442        C    x3x010
G     3xx003        Em   0xx000        Am   x0x210
B7/F# 2xx202        Am   x0x210        B7   x2x202
                    C    x3x010
                    B7   x2x202
        
When playing G, you can add B|-0h1—1---0-| (Not in the instrumental part)
An added (x) means you have to play that note on the high e-string.

Picking pattern
---------------

e|--o-----o--|
B|------o----|
G|----o------|
D|--o--------|
A|--o--------|  (Play which ever bass note is mentioned in the chords above)
E|--o--------|
This pattern is just a guideline, try to vary throughout the whole song.
Have fun!

[Intro]
e|--3-----5-----7-----0------8------------7\----------2--|
B|-------------------------------------------------------|
G|----0-----0-----0-----0--------------------------------|
D|--2-----4-----5-----2------7------------5\----------1--|
A|-------------------------------------------------------|
E|-------------------------------------------------------|

|Em |C |Am B7(e) B7|Em(g)
|Em(g) |C(g) B7 B7(e)|Am B7(e)|Em

[Verse 1]
Em         C     Am       B7(e)    B7 Em(g)
Kvöldið er okkar og vor um     Vaglaskóg.
Em(g)      G        Am(g)Am(f#)  B7 B7/F#
Við skulum tjalda í grænum berjamó 
Em(g)      Am(g) Am(f#) Am B      B(g) B     Em
Leiddu mig vinur        í  lundinn     frá í gær. 
Em(g)      Am(g) Am(f#) Am B      B/F#  Em
Lindin þar niðar        og birkihríslan grær

[Chorus]
D        G       B         B/F#    Em(g)
Leikur í ljósum, lokkum og angandi rósum 
Em(g)    Am(g)   Am(f#) Am  C           B        
leikur í ljósum,            lokkum hinn vaggandi blær.

    Em                   Am                   B7                   Em
e|--3-----3--2---0----|--3-----3--2---0----|--3-----3--2---0----|--3-----0--0—-2--|
B|------0------0---0--|------1------0---0--|------0------0---0--|------0----------|
G|----0---------------|----2---------------|----2---------------|----0------------|
D|--------------------|--------------------|--------------------|-----------------|
A|--------------------|--0-----------------|--2-----------------|-----------------|
E|--0-----------------|--------------------|--------------------|--0--------------|

    Em                   Am                   B7                   Em
e|--7-----7--5---3----|--7-----7--5---3----|--7-----7--5---3----|--0-----0--0—-0--|
B|------0------0---0--|--------------------|------0------0---0--|------0----------|
G|----0---------------|------5------5---5--|--------------------|----0------------|
D|--------------------|----7---------------|----7---------------|-----------------|
A|--------------------|--0-----------------|--------------------|-----------------|
E|--0-----------------|--------------------|--7-----------------|--0--------------|

[Verse 2]  
Em         C       Am      B7(e) B7 Em(g)
Daggperlur glitra um dalinn  færist ró 
Em(g)        G          Am(g) Am(f#)      B7  B7/F#
draumar þess rætast sem gistir      Vaglaskóg 
Em(g)      Am(g) Am(f#) Am B    B(g) B Em
Kveldrauðu skini        á  krækilyngið slær.
Em(g)      Am(g) Am(f#) Am  B        B/F# Em
Kyrrðin er fri - ðan  - di   mild og angurvær. 

[Chorus]
D        G       B         B/F#    Em(g)
Leikur í ljósum, lokkum og angandi rósum 
Em(g)    Am(g)   Am(f#) Am  C           B        
leikur í ljósum,            lokkum hinn vaggandi blær.

[Instrumental]
    Em          G           A           C
e|--0-----0--|-----------|-----------|-----------|
B|------0----|--3-----3--|--2-----2--|--1-----1--|
G|----0------|------0----|------2----|------0----|
D|-----------|----0------|----2------|----2------|  
A|-----------|-----------|--0--------|--3--------|
E|--0--------|--3--------|-----------|-----------| (x2)

    Em                   Am                   B7                   Em
e|--3-----3--2---0----|--3-----3--2---0----|--3-----3--2---0----|--0-----0--0—-2--|
B|------0------0---0--|------1------0---0--|------0------0---0--|------0----------|
G|----0---------------|----2---------------|----2---------------|----0------------|
D|--------------------|--------------------|--------------------|-----------------|
A|--------------------|--0-----------------|--2-----------------|-----------------|
E|--0-----------------|--------------------|--------------------|--0--------------|

    Em                   Am                   B7                   Em
e|--7-----7--5---3----|--7-----7--5---3----|-----------0---2----|--0-----0--3—-2--|
B|------0------0---0--|--------------------|--4---0--4---0---0--|------0----------|
G|----0---------------|------5------5---5--|----2---------------|----0------------|
D|--------------------|----7---------------|--------------------|-----------------|
A|--------------------|--0-----------------|--2-----------------|-----------------|
E|--0-----------------|--------------------|--------------------|--0--------------|

[Chorus]
D        G       B         B/F#    Em(g)
Leikur í ljósum, lokkum og angandi rósum 
Em(g)    Am(g)   Am(f#) Am  C           B        Em
leikur í ljósum,            lokkum hinn vaggandi blær.

[Outro] 
     C           B7       Em
Oooh lokkum hinn vaggandi blær.

e|--3-----5-----7-----8----7-------5\----3-|
B|-----------------------------------------|
G|----0-----0-----0------------------------|
D|--2-----4-----5-----7----5-------4\----2-|
A|-----------------------------------------|
E|---------------------------------------0-|



************************************

| \  Slide down
 

************************************

            
            
Suggest correction
Creating personal tab
Creating personal tab
You can edit any tab online and save it as your Personal.

You can edit, replace or remove any tab part or add personal notes – all changes will be seen only by you.

Personal tabs can be accessed anytime from any device, even offline.
Learn more »
comments
print report bad tab
2 comments total.
0 reply
emweng 48 May 31, 2017 02:31 PM

Great tab!

guest
You may want to rate the tab now too:
select rating
Wanna post a correction for this tab? Suggest correction