Oops, an error
Loading. Please wait.

Never Wanna Know Live tab

by
181 views 3 this week
2 commentsread comments
1 2 3 4 5
2 more votes to show rating
add to favorites
×
Save as Personal and add changes to this tab that will be seen only by you. Learn more ›
×
You can save this tab as Personal to edit and correct it or add notes. All changes will be seen only by you. Learn more »
launch autoscroll
font size
0
reset
how to read this tab
guitar tuner
edit
Autoscroll
slow
fast
+/-
esc
set tempo
stop
Author
Difficulty
About this tab version
Version of Pure Chart Live. Was this info helpful? Yes No
Artist: MØ
Song: Never Wanna Know
Live Version : http://www.dailymotion.com/video/x1dhhx5_mo-never-wanna-know-pure-charts-live_music

[Intro]
e|-----------------------|---------------------------|
B|-----------------------|---------------------------|
G|-----------------------|-----------6/8/6-----------|
D|-4--x-4-4---4--x-4-4/6-|-3--x-3-3--6/8/6-----------|
A|-4--x-4-4---4--x-4-4/6-|-3--x-3-3--4/6/4------4----|
E|-2--x-2-2---2--x-2-2/4-|-1--x-1-1---------4h6---6--|

e|-----------------------|---------------------------|
B|-----------------------|---------------------------|
G|-----------------------|-----------6/8/6-----------|
D|-4--x-4-4---4--x-4-4/6-|-3--x-3-3--6/8/6-----------|
A|-4--x-4-4---4--x-4-4/6-|-3--x-3-3--4/6/4-----------|
E|-2--x-2-2---2--x-2-2/4-|-1--x-1-1------------------|

[Verse]
1st part
e|--2---1---6--------------------------------------------------------|
B|--2---2---7-------6---x-----6--------------------------------------|
G|--3---3---8-------6---x-----6--------------------------------------|
D|--4---3---8-------6---x-----6--------------------------------------|
A|------------------4---x-6/8----------------------------------------|
E|-------------------------------------------------------------------|
   F#  Bbm  Ebm    C#

F#                     Bbm
All our dreams sleep tonight
                       Ebm
They'll be safe as we fight
                       C# 
In the journey of the best

     F#                            Bbm
And I know I've cost you a lot of blues
                               Ebm
Now the last one's playing for you
                                      C#
But I couldn't go without letting you know this

[2nd part]
e|--------2--|    -------1-|   -------6-|   ------------------------------| -------------------|
B|------2----|    -----2---|   -----7---|   -------6-------------6--------| -------6-------6---|
G|----3------|x2  ---3-----|x2 ---8-----|x2 -----6---6---------6---6------| -----6---6-----6---|
D|--4--------|    -3-------|   -8-------|   ---6-------------6------6-----| ---6-----------6---|
A|-----------|    ---------|   ---------|   -4---------6/8-8--------------| -4---------6/8-----|
E|-----------|    ---------|   ---------|   ------------------------------| -------------------|
   F#             Bbm            Ebm         C#                              C#*

       F#
I guess our love somehow
              Bbm
Was too crazy to work out
                Ebm
I'm crazy 'bout you
                     C#
But I can't, it just can't do

F#                    Bbm
And we wait 'til the morning
                          Ebm
Then our lives are moving on
                           C#*
With no words, you'll do fine

[Chorus]
e|---x-----x-----x-----x-----x---------------------------------------|
B|-----x-----x-----x-----x-----x-------------------------------------|
G|-------x-----x-----x-----x-----x-----------------------------------|
D|-------------------------------------------------------------------|
A|-------------------------------------------------------------------|
E|-------------------------------------------------------------------|
  F#, Bbm and C# plays using this arpegio.. same strings only change the chords
 
 and for C# play this..

e|-------------------|-------------------|
B|---6-----6-----6---|-------6-----6-----|
G|-----6-----6-----6-|---------6-----6---|
D|-------6-----6-----|----6------6-----6-|
A|-------------------|6h8----------------|
E|-------------------|-------------------|

                  F#
But I never wanna know the name
        Bbm
Of your new girlfriend
             Ebm
Never wanna hear about her
                 C#
Keep her stains away

              F#
I never wanna know
             Bbm
Never wanna know
             Ebm
Never wanna know
             C#
Never wanna know

[Verse 2]
1st part
e|--2---1---6--------------------------------------------------------|
B|--2---2---7-------6---x-----6--------------------------------------|
G|--3---3---8-------6---x-----6--------------------------------------|
D|--4---3---8-------6---x-----6--------------------------------------|
A|------------------4---x-6/8----------------------------------------|
E|-------------------------------------------------------------------|
   F#  Bbm  Ebm    C#

 F#                       Bbm
I dry my eyes on the highway
                               Ebm
And think about why I couldn't stay
                 C#
And why I should have, 'cause I love you

[2nd part verse 2]

e|--------2--|    -------1-|   -------6-|   ------------------------------| -------------------|
B|------2----|    -----2---|   -----7---|   -------6-------------6--------| -------6-------6---|
G|----3------|x2  ---3-----|x2 ---8-----|x2 -----6---6---------6---6------| -----6---6-----6---|
D|--4--------|    -3-------|   -8-------|   ---6-------------6------6-----| ---6-----------6---|
A|-----------|    ---------|   ---------|   -4---------6/8-8--------------| -4---------6/8-----|
E|-----------|    ---------|   ---------|   ------------------------------| -------------------|
   F#             Bbm            Ebm         C#                              C#*
F#                    Bbm
But the wind blows again
                         Ebm
And life moves on, my friend
                           C#
With some words we wrote down

[Chorus]
e|---x-----x-----x-----x-----x----------------|
B|-----x-----x-----x-----x-----x--------------|
G|-------x-----x-----x-----x-----x------------|
D|--------------------------------------------|
A|--------------------------------------------|
E|--------------------------------------------|
  F#, Bbm and C# plays using this arpegio.. same strings only change the chords
 
 and for C# play this..

e|-------------------|------------------------|
B|---6-----6-----6---|--------6-----6---------|
G|-----6-----6-----6-|----------6-----6-------|
D|-------6-----6-----|-----6------6-----6-----|
A|-------------------|-6h8--------------------|
E|-------------------|------------------------|

                  F#
But I never wanna know the name
        Bbm
Of your new girlfriend
             Ebm
Never wanna hear about her
                 C#
Keep her stains away

              F#
I never wanna know
             Bbm
Never wanna know
             Ebm
Never wanna know
             C#
Never wanna know

[Bridge]
e|-----------------------|---------------------------|
B|-----------------------|---------------------------|
G|-----------------------|-----------6/8/6-----------|
D|-4--x-4-4---4--x-4-4/6-|-3--x-3-3--6/8/6-----------|
A|-4--x-4-4---4--x-4-4/6-|-3--x-3-3--4/6/4------4----|
E|-2--x-2-2---2--x-2-2/4-|-1--x-1-1---------4h6---6--|

e|---------------------------------------------------|
B|---------------------------------------------------|
G|---------------------------------------------------|
D|-4--x-4-4---4--x-4-4/6--3--------------------------|
A|-4--x-4-4---4--x-4-4/6--3--------------------------|
E|-2--x-2-2---2--x-2-2/4--1--------------------------|

       
Hey, all of a sudden I was brain-dead and rattled
         
With the thoughts of you and I, and I wanted to goodbye you
         
But the nights are so cold, how I need your human soul
       
I would never let you go

If I'd been a little older

[Outro]
e|-2----1----6----8---14---13----10----------------------------------|
B|-2----2----7----8---14---14----10----------------------------------|
G|-3----3----8----9---15---15----10----------------------------------|
D|-4----3----8-------------------------------------------------------|
A|-------------------------------------------------------------------|
E|-------------------------------------------------------------------|
   F#  Bbm  Ebm  C#*  F#*  Bbm*  Ebm* (arpegio again)

 
But I never wanna know the name
        Bbm
Of your new girlfriend
             Ebm
Never wanna hear about her
                 C#*
Keep her stains away

              F#*
I never wanna know
             Bbm*
Never wanna know
             Ebm*
Never wanna know
             C#*
Never wanna know
F#
Ooh

***********************************

| h Hammer-on 
| x Dead note 
| / Slide-up 

***********************************

            
            
Suggest correction
Creating personal tab
Creating personal tab
You can edit any tab online and save it as your Personal.

You can edit, replace or remove any tab part or add personal notes – all changes will be seen only by you.

Personal tabs can be accessed anytime from any device, even offline.
Learn more »
Give kudos to tab author, rate the tab!
1 2 3 4 5
comments
print report bad tab
2 comments total.
0 reply
only.punk.rock.music 404 Apr 25, 2017 11:16 PM

Perfect chords & tabs. Thank you so much

0 reply
Pilgrim77 386 Jun 12, 2017 01:17 AM

your welcome, saludos

guest
You may want to rate the tab now too:
select rating
Wanna post a correction for this tab? Suggest correction