Oops, an error
Loading. Please wait.

Say Youll Be There Live tab

by
127 views 6 this week
no commentswrite comment
1 2 3 4 5
3 more votes to show rating
add to favorites
×
Save as Personal and add changes to this tab that will be seen only by you. Learn more ›
×
You can save this tab as Personal to edit and correct it or add notes. All changes will be seen only by you. Learn more »
launch autoscroll
font size
0
reset
how to read this tab
guitar tuner
edit
Autoscroll
slow
fast
+/-
esc
set tempo
stop
Author
Difficulty
Artis:MØ 
Song:Say you'll be there - VEVO DSCVR at The Great Escape


Chords:

e|------------3-----------------------------------------------------------|
B|----7---0---3---7---5---------------------------------------------------|
G|----7---1---4---7---6---------------------------------------------------|
D|----9---2---5---7---7---------------------------------------------------|
A|----9---2---5---5---7---------------------------------------------------|
E|----7---0-----------5---------------------------------------------------|
     Bm   E   G   D   A

[Verse 1]
Bm                E                       G                       D           A
  Last time that we had this conversation I decided we should be friends,  
Bm            E                             G                     D           A
  but now we're going round in circles, tell me will this deja vu never end? Oh
Bm                           E                     G                          D         A
  Now you tell me that you've fallen in love, well I never ever thought that would be 
Bm            E                             G                     D
  This time you gotta take it easy throwing far too much emotions at me 
 
[Pre-Chorus] 
e|----8-----7-----6-----5--------------------------------------------|
B|----8-----7-----6-----5--------------------------------------------|
G|----9-----7-----7-----6--------------------------------------------|
D|---10-----9-----8-----7--------------------------------------------|
A|-------------------------------------------------------------------|
E|-------------------------------------------------------------------|
      C     Bm    Bb    A

          C                      Bm         Bb                  A
but any fool can see they're falling, I gotta make you understand 

[Chorus] 
(Same chords than verse but a little variation on the E chord, hear the song for the strumming)

e|------------3-------------------| --------------0--------------|
B|----7---0---3---7---5-----------| -------0--------0------------|
G|----7---1---4---7---6-----------| -------1----1-----1----------|
D|----9---2---5---7---7-----------| -------2---------------------|
A|----9---2---5---5---7-----------| -------2---------------------|
E|----7---0-----------5-----------| -------0---------------------|
     Bm   E   G   D   A                    E*

Bm            E*                G                  D            A
I'm giving you everything all that joy can bring this I swear 
Bm            E*               G                 D              A
And all that I want from you is a promise you will be there


                  "Say you'll be there...
e|-----------------------0--------------------------|
B|-------7-x-7------0--0---0------------------------|
G|-------7-x-7------1--------1----------------------|
D|---9---9-x-9------2-------------------------------|
A|---9---9-x-9------2-------------------------------|
E|---7---7-x-7------0-------------------------------|


              ...Won't you sing it with me?"
e|---2--2-0-2-0--------------------------------------|
B|---3--3----------0---------------------------------|
G|---4-------------1---------------------------------|
D|---4-------------2---------------------------------|
A|-----------------2---------------------------------|
E|-----------------0---------------------------------|

[Verse 2]
e|------------3-----------------------------------------------------------|
B|----7---0---3---7---5---------------------------------------------------|
G|----7---1---4---7---6---------------------------------------------------|
D|----9---2---5---7---7---------------------------------------------------|
A|----9---2---5---5---7---------------------------------------------------|
E|----7---0-----------5---------------------------------------------------|
     Bm   E   G   D   A

Bm         E                               G                         D           A       
If you, put two and two together you will see what our friendship is for (Ooh oh oh) 
Bm          E                         G                                 D       
If you can't work this equation then I guess I'll have to show you the door 

[Pre-Chorus]
e|----8-----7-----6-----5--------------------------------------------|
B|----8-----7-----6-----5--------------------------------------------|
G|----9-----7-----7-----6--------------------------------------------|
D|---10-----9-----8-----7--------------------------------------------|
A|-------------------------------------------------------------------|
E|-------------------------------------------------------------------|
      C     Bm    Bb    A

            C              Bm                    Bb            A
There is no need to say you love me, It would be better left unsaid 


[Chorus]
e|------------3-------------------| --------------0--------------|
B|----7---0---3---7---5-----------| -------0--------0------------|
G|----7---1---4---7---6-----------| -------1----1-----1----------|
D|----9---2---5---7---7-----------| -------2---------------------|
A|----9---2---5---5---7-----------| -------2---------------------|
E|----7---0-----------5-----------| -------0---------------------|
     Bm   E   G   D   A                    E*

Bm            E                 Gm                  D                 A   
I'm giving you everything all that joy can bring this I swear (This I swear!)
Bm            E                Gm                 D
And all that I want from you is a promise you will be there (Yeahhh, I want you!)

[Solo]
e|----------------------|---------------------|------------------------|
B|--------------7-------|-------------7-------|------------------------|
G|---------7--9---9-7---|--------7--9---9-7---|------------------------|
D|---9-9-9------------9-|--9-9-9------------9-|--9-7-9-7-9-7-----------|
A|----------------------|---------------------|------------------------|
E|----------------------|---------------------|------------------------|

e|-------------|-----------------|-------------------------------------|
B|---------7~--|----10-10-7------|--------------7----------------------|
G|-------9-----|------------9~---|---------7--9---9-7------------------|
D|-7h9p7-------|-----------------|---9-9-9------------9----------------|
A|-------------|-----------------|-------------------------------------|
E|-------------|-----------------|-------------------------------------|

e|----------------------|--------------------------7-7--------10-10--------|
B|-------------7--------|---10-7-10-7-10-7-10p7-10-----10-10~-------10~----|
G|--------7--9---9-7-9--|--------------------------------------------------|
D|--9-9-9---------------|--------------------------------------------------|
A|----------------------|--------------------------------------------------|
E|----------------------|--------------------------------------------------|

[Pre-Chorus]
e|----8-----7-----6-----5--------------------------------------------|
B|----8-----7-----6-----5--------------------------------------------|
G|----9-----7-----7-----6--------------------------------------------|
D|---10-----9-----8-----7--------------------------------------------|
A|-------------------------------------------------------------------|
E|-------------------------------------------------------------------|
      C     Bm    Bb    A

  C                           Bm         Bb                  A
but any fool can see they're falling, I gotta make you understand 

e|---------------------------------| 
B|----7---9---12---7---5-----------| 
G|----7---9---12---7---6-----------| 
D|----9---9---12---7---7-----------| 
A|----9---7---10---5---7-----------| 
E|----7----------------5-----------| 
     Bm   E*  G*   D   A

Bm            E*                G*                 D            A
I'm giving you everything all that joy can bring this I swear 
Bm            E*               G*                D              A
And all that I want from you is a promise you will be there

[Outro]
e|------------3-----------------------------------------------------------|
B|----7---0---3---7---5---------------------------------------------------|
G|----7---1---4---7---6----11---------------------------------------------|
D|----9---2---5---7---7----12---------------------------------------------|
A|----9---2---5---5---7----12---------------------------------------------|
E|----7---0-----------5----10---------------------------------------------|
     Bm   E   G   D   A    D*

Bm            E                G                          D       A
I'm giving you everything all that joy can bring this I swear 
Bm            E                   G                       D*            
And all that I want from you is a promise you will be there


 

************************************

| x  Dead note
| ~  Vibrato
| h  Hammer-on
| p  Pull-off
 

************************************
Suggest correction
Creating personal tab
Creating personal tab
You can edit any tab online and save it as your Personal.

You can edit, replace or remove any tab part or add personal notes – all changes will be seen only by you.

Personal tabs can be accessed anytime from any device, even offline.
Learn more »
Give kudos to tab author, rate the tab!
1 2 3 4 5
comments
print report bad tab
guest
You may want to rate the tab now too:
select rating
Wanna post a correction for this tab? Suggest correction