Oops, an error
Loading. Please wait.

Cecília Os Balões chords

by Cicero
31 views 1 this week
no commentswrite comment
1 2 3 4 5
3 more votes to show rating
add to favorites
×
Save as Personal and add changes to this tab that will be seen only by you. Learn more ›
×
You can save this tab as Personal to edit and correct it or add notes. All changes will be seen only by you. Learn more »
launch autoscroll
font size
0
reset
transpose
0
reset
simplify chords
display chords
guitar tuner
edit
Autoscroll
slow
fast
+/-
esc
set tempo
stop
Strumming
There is no strumming pattern for this song yet. and get +5 IQ
Artist: Cícero
Song: Cecília e Os Balões
Album: Canções de Apartamento
Tabbed by: gustavoaraujo999@hotmail.com
Tuning: Standard (EADGBE)

**Acordes no fim


[Verse 1]
    D7M
Pra começar
  Bm/D
a colorir
  F#m/C#
algum lugar
    F#m6
que seja aqui
    Am9/C        B7
com um balão só
   Bb7M     Dsus2/A 
já dá pra voar


[Interlude 1]
  Gm7  F6/D  Bb7M  Dsus2  
  Gm7  F6/D  Bb7M  Dm/C


[Verse 2]
    D7M
Pra começar
  Bm/D
a descobrir
      F#m/C#
o que é chegar
        F#m6
e o que é partir
  Am9/C      B7
o coração só
    Bb7M        Dsus/A
 precisa de ar

(Gm7  Dm/F  Bb7M . . .)
           E deixar


[Interlude 2]
   Gm7   F6/D  Bb7M Dsus2  
   Gm7   F6/D  Bb7M Dsus2  
   Gm7   F6/D  Bb7M Gsus4/C  


{Bridge]
   Gm  F6  Bb6  Bb6/A  
   Gm  F6  Bb6  Bb6/A    

   Eb7M  Gm  Bb7M  F6
   Eb7M  Gm  Bb7M  F6  
   Eb7M  Gm  Dm       
 


[Verse 1]
   D7M  Bm/D F#m/C# F#m6  Am9/C  B7   Bb7M  Dsus2/A
e|-----|-----|--2--|-----|-----|-----|--1--|--0-0-|
B|--3--|--3--|--2--|--2--|--0--|--0--|--3--|--3-2-| 
G|--6--|--4--|--2--|--2--|--2--|--2--|--2--|--2-2-|
D|--4--|--4--|--4--|--1--|--2--|--1--|--3--|------|
A|--5--|--5--|--4--|-----|--3--|--2--|--1--|--0-0-|
E|-----|-----|-----|--2--|-----|-----|-----|------|


[Interlude 1]
   Gm7   F6/D Bb7M  Dsus2  Gm7   F6/D  Bb7M  Dm/C 
e|--1--|--1--|--1--|--0--|--1--|--1--|--1--|--1--|
B|--3--|--3--|--3--|--3--|--3--|--3--|--3--|--3--|
G|--3--|--2--|--2--|--2--|--3--|--2--|--2--|--2--|
D|-----|--3--|--3--|--0--|-----|--3--|--3--|-----|
A|-----|-----|--1--|-----|-----|-----|--1--|--3--|
E|--3--|-----|-----|-----|--3--|-----|-----|-----|


[Verse 2]
   D7M  Bm/D F#m/C# F#m6  Am9/C  B7   Bb7M  Dsus2/A
e|-----|-----|--2--|-----|-----|-----|--1--|--0-0-|
B|--3--|--3--|--2--|--2--|--0--|--0--|--3--|--3-2-| 
G|--6--|--4--|--2--|--2--|--2--|--2--|--2--|--2-2-|
D|--4--|--4--|--4--|--1--|--2--|--1--|--3--|------|
A|--5--|--5--|--4--|-----|--3--|--2--|--1--|--0-0-|
E|-----|-----|-----|--2--|-----|-----|-----|------|


[Interlude 2]
   Gm7   F6/D  Bb7M Dsus2  Gm7   F6/D  Bb7M Dsus2  Gm7   Dm/F  Bb7M Gsus4/C  
e|--1--|--1--|--1--|--0--|--1--|--1--|--1--|--0--|--1--|--1--|--1--|--3--|
B|--3--|--3--|--3--|--3--|--3--|--3--|--3--|--3--|--3--|--3--|--3--|--3--|
G|--3--|--2--|--2--|--2--|--3--|--2--|--2--|--2--|--3--|--2--|--2--|--2--|
D|-----|--3--|--3--|--0--|-----|--3--|--3--|--0--|-----|--3--|--3--|-----|
A|-----|-----|--1--|-----|-----|-----|--1--|-----|-----|-----|--1--|--3--|
E|--3--|-----|-----|-----|--3--|-----|-----|-----|--3--|-----|-----|-----|


[Bridge]
   Gm    F6    Bb6  Bb6/A  Gm    F6    Bb6  Bb6/A    
e|-----|-----|-----|-----|-----|-----|-----|-----|
B|--3--|--3--|--8--|--8--|--3--|--3--|--8--|--8--|
G|--3--|--2--|--7--|--7--|--3--|--2--|--7--|--7--|
D|--0--|--0--|--8--|--8--|--0--|--0--|--8--|--8--|
A|-----|-----|-----|--0--|-----|-----|-----|--0--|
E|--3--|--1--|--6--|-----|--3--|--1--|--6--|-----|

  Eb7M   Gm    Bb7M  F6   Eb7M   Gm    Bb7M  F6  
e|-----|-----|--1--|--1--|-----|-----|--1--|--1--|
B|--8--|--3--|--3--|--3--|--8--|--3--|--3--|--3--|
G|--7--|--3--|--2--|--2--|--7--|--3--|--2--|--2--|
D|--8--|--0--|--3--|--3--|--8--|--0--|--3--|--3--|
A|--6--|-----|--1--|-----|--6--|-----|--1--|-----|
E|-----|--3--|-----|--1--|-----|--3--|-----|--1--|

  Eb7M   Gm    Bb7M  F6   Eb7M   Gm    Bb7M  F6  
e|-----|-----|--1--|--1--|-----|-----|--1--|--1--|
B|--8--|--3--|--3--|--3--|--8--|--3--|--3--|--3--|
G|--7--|--3--|--2--|--2--|--7--|--3--|--2--|--2--|
D|--8--|--0--|--3--|--3--|--8--|--0--|--3--|--3--|
A|--6--|-----|--1--|-----|--6--|-----|--1--|-----|
E|-----|--3--|-----|--1--|-----|--3--|-----|--1--|

  Eb7M   Gm     Dm       
e|-----|-----|--10--|
B|--8--|--3--|--10--|
G|--7--|--3--|--10--|
D|--8--|--5--|--0---|
A|--6--|--3--|------|
E|-----|-----|------|

            
            
Suggest correction
Creating personal tab
Creating personal tab
You can edit any tab online and save it as your Personal.

You can edit, replace or remove any tab part or add personal notes – all changes will be seen only by you.

Personal tabs can be accessed anytime from any device, even offline.
Learn more »
Give kudos to tab author, rate the tab!
1 2 3 4 5
comments
print report bad tab
guest
You may want to rate the tab now too:
select rating
Wanna post a correction for this tab? Suggest correction