Oops, an error
Loading. Please wait.

Eu Não Tenho Um Barco Disse A Árvore chords

by Cicero
34 views 1 this week
no commentswrite comment
1 2 3 4 5
3 more votes to show rating
add to favorites
×
Save as Personal and add changes to this tab that will be seen only by you. Learn more ›
×
You can save this tab as Personal to edit and correct it or add notes. All changes will be seen only by you. Learn more »
launch autoscroll
font size
0
reset
transpose
0
reset
simplify chords
display chords
guitar tuner
edit
Autoscroll
slow
fast
+/-
esc
set tempo
stop
Strumming
There is no strumming pattern for this song yet. and get +5 IQ
Artist: Cícero
Song: Eu não tenho um barco disse a árvore
Album: Canções de Apartamento
Tabbed by: gustavoaraujo999@hotmail.com

**Acordes no fim
**Na gravação a afinação é em meio tom abaixo, mas ele mesmo 
  toca em eadgbe ao vivo, na maior parte das vezes. [https://www.youtube.com/watch?v=ezE9bQMeQ0o]


[Intro]
G(#5)  G(#5)  F6  F6


G(#5)
Deixa pra depois
                F6
O que já não precisa esperar
               G(#5)
E tudo que não deu pra consertar
               F6
Por culpa do depois

G             F6
Não tem jeito não
                 A#6     D#7M
a gente sempre espera piorar
               G(#5)       F6
a gente sempre deixa de cuidar
                 A#6   D#7M
do que já tem na mão


[Pre-chorus 1]
      Cm/D#   Cm   G
Mas é sem__   que__rer
Cm/D#   Cm6  G
Sem__   que__rer


[Chorus 1]
  A#6    Cm   G
Então, taí
        A#6     Cm
nosso refrão, taí


[Interlude]
G(#5)  G(#5)  F6  F6


[Verse 2]
G(#5)
Deixa pra depois
                F6
O que já não precisa mais deixar
                  G           F6
Mudando as mesmas coisas de lugar
              A#6        D#7M
A certa coisa certa a se fazer
                G         F6
E diz que só queria descansar
                A#6            D#7M
De quem a gente mesmo escolheu ser


[Pre-chorus 2]
Cm/D#   Cm   G
sem__   que__rer
         Cm/D#   Cm6  G
É sempre sem__   que__rer


[Chorus 2]
  A#6    Cm   G
Então, taí
        A#6     Cm  G
nosso refrão, taí


[Bridge]
    D#7M  A#6 
Sem graça
    Cm    G
Sem graça
    D#7M  A#6 
Sem graça
    Cm    G
Sem graça


[Chorus 3]
  A#6    Cm   G
Então, taí
       A#6(hold)   Cm(hold)  G(hold)
Pois então,      taí




[Intro]
   G(#5)       F6        
e|-----|-----|-----|-----|
B|--3--|--3--|--3--|--3--|
G|--0--|--0--|--2--|--2--|
D|--1--|--1--|--3--|--3--|
A|-----|-----|-----|-----|
E|--3--|--3--|--1--|--1--|


[Verse 1]
   G(#5)       F6          G(#5)        F6        
e|-----|-----|-----|-----|-----|-----|-----|-----|
B|--3--|--3--|--3--|--3--|--3--|--3--|--3--|--3--|
G|--0--|--0--|--2--|--2--|--0--|--0--|--2--|--2--|
D|--1--|--1--|--3--|--3--|--1--|--1--|--3--|--3--|
A|-----|-----|-----|-----|-----|-----|-----|-----|
E|--3--|--3--|--1--|--1--|--3--|--3--|--1--|--1--|

    G     F6    A#6 D#7M    G     F6   A#6  D#7M
e|-----|-----|-----|-----|-----|-----|-----|-----|
B|--3--|--3--|--8--|--8--|--3--|--3--|--8--|--8--|
G|--3--|--2--|--7--|--7--|--3--|--2--|--7--|--7--|
D|--0--|--3--|--8--|--8--|--0--|--3--|--8--|--8--|
A|-----|-----|-----|--6--|-----|-----|-----|--6--|
E|--3--|--1--|--6--|-----|--3--|--1--|--6--|-----|


[Pre-chorus 1]
  Cm/D#   Cm    G         Cm/D#  Cm6    G
e|-----|-----|-----|-----|-----|--3--|-----|-----|
B|--4--|--4--|--3--|--3--|--4--|--4--|--3--|--3--|
G|--5--|--5--|--3--|--3--|--5--|--2--|--3--|--3--|
D|--5--|--5--|--0--|--0--|--5--|-----|--0--|--0--|
A|--6--|--3--|-----|-----|--6--|--3--|-----|-----|
E|-----|-----|--3--|--3--|-----|-----|--3--|--3--|
 

[Chorus 1]
   A#6    Cm    G          A#6   Cm   
e|-----|-----|-----|-----|-----|-----|-----|
B|--6--|--4--|--3--|--3--|--6--|--4--|-----|
G|--7--|--5--|--3--|--3--|--7--|--5--|-----|
D|--5--|--5--|--0--|--0--|--5--|--5--|-----|
A|-----|--3--|-----|-----|-----|--3--|-----|
E|--6--|-----|--3--|--3--|--6--|-----|-----|


[Interlude]
   G(#5)       F6        
e|-----|-----|-----|-----|
B|--3--|--3--|--3--|--3--|
G|--0--|--0--|--2--|--2--|
D|--1--|--1--|--3--|--3--|
A|-----|-----|-----|-----|
E|--3--|--3--|--1--|--1--|


[Verse 2]
   G(#5)       F6              
e|-----|-----|-----|-----|
B|--3--|--3--|--3--|--3—-|
G|--0--|--0--|--2--|--2--|
D|--1--|--1--|--3--|--3--|
A|-----|-----|-----|-----|
E|--3--|--3--|--1--|--1--|

    G     F6    A#6 D#7M    G     F6   A#6  D#7M
e|-----|-----|-----|-----|-----|-----|-----|-----|
B|--3--|--3--|--8--|--8--|--3--|--3--|--8--|--8--|
G|--3--|--2--|--7--|--7--|--3--|--2--|--7--|--7--|
D|--0--|--3--|--8--|--8--|--0--|--3--|--8--|--8--|
A|-----|-----|-----|--6--|-----|-----|-----|--6--|
E|--3--|--1--|--6--|-----|--3--|--1--|--6--|-----|


[Pre-chorus 2]
  Cm/D#   Cm    G         Cm/D#  Cm6    G
e|-----|-----|-----|-----|-----|--3--|-----|-----|
B|--4--|--4--|--3--|--3--|--4--|--4--|--3--|--3--|
G|--5--|--5--|--3--|--3--|--5--|--2--|--3--|--3--|
D|--5--|--5--|--0--|--0--|--5--|-----|--0--|--0--|
A|--6--|--3--|-----|-----|--6--|--3--|-----|-----|
E|-----|-----|--3--|--3--|-----|-----|--3--|--3--|


[Chorus 2]
   A#6    Cm    G          A#6   Cm     G
e|-----|-----|-----|-----|-----|-----|-----|-----|
B|--6--|--4--|--3--|--3--|--6--|--4--|--3--|--3--|
G|--7--|--5--|--3--|--3--|--7--|--5--|--3--|--3--|
D|--5--|--5--|--0--|--0--|--5--|--5--|--0--|--0--|
A|-----|--3--|-----|-----|-----|--3--|-----|-----|
E|--6--|-----|--3--|--3--|--6--|-----|--3--|--3--|


[Bridge]
   D#7M  A#6    Cm    G*   D#7M  A#6    Cm    G
e|-----|-----|-----|--3--|-----|-----|-----|-----|
B|--8--|--8--|--4--|--3--|--7--|--8--|--4--|--3--|
G|--7--|--7--|--5--|--3--|--6--|--7--|--5--|--3--|
D|--8--|--8--|--5--|--5--|--7--|--8--|--5--|--0--|
A|--6--|-----|--3--|--5--|--6--|-----|--3--|-----|
E|-----|--6--|-----|--3--|-----|--6--|-----|--3--|


[Chorus 3]
   A#6    Cm    G          A#6   Cm     G
e|-----|-----|-----|-----|-----|-----|--3--|-----|
B|--6--|--4--|--3--|--3--|--6--|--4--|--3--|-----|
G|--7--|--5--|--3--|--3--|--7--|--5--|--3--|-----|
D|--5--|--5--|--0--|--0--|--5--|--5--|--5--|-----|
A|-----|--3--|-----|-----|-----|--3--|--5--|-----|
E|--6--|-----|--3--|--3--|--6--|-----|--3--|-----|
Suggest correction
Creating personal tab
Creating personal tab
You can edit any tab online and save it as your Personal.

You can edit, replace or remove any tab part or add personal notes – all changes will be seen only by you.

Personal tabs can be accessed anytime from any device, even offline.
Learn more »
Give kudos to tab author, rate the tab!
1 2 3 4 5
comments
print report bad tab
guest
You may want to rate the tab now too:
select rating
Wanna post a correction for this tab? Suggest correction