Oops, an error
Loading. Please wait.

Pilgrim Live tab

by
97 views 1 this week
no commentswrite comment
1 2 3 4 5
3 more votes to show rating
add to favorites
×
Save as Personal and add changes to this tab that will be seen only by you. Learn more ›
×
You can save this tab as Personal to edit and correct it or add notes. All changes will be seen only by you. Learn more »
launch autoscroll
font size
0
reset
how to read this tab
guitar tuner
edit
Autoscroll
slow
fast
+/-
esc
set tempo
stop
Author
[Intro]
e|-10-8-6-6-8-6-|---------6-|--5-5-5-8-10-----|
B|-x--x-x-x-x-x-|--6-6-6--x-|--x-x-x-x-x------|
G|-7--5-3-3-5-3-|--x-x-x--3-|--2-2-2-5-7------| (x2)
D|--------------|--3-3-3----|-----------------|
A|--------------|-----------|-----------------|
E|--------------|-----------|-----------------|

[Verse]
N.C
Oh, what a world I was born into
Warriors are lying down
Hush little head you'll get sick
So sorrow-filled I am
Old wise river take me to the sea
Breathe free
Like pilgrims on the Camino
I go, I go..

[Pre-Chorus]
(I simplified the death notes, but it's a constantly picking)
e|-3-3-x-3-3-x-x-3-3-|-3-3-x-x-3-3-6-6-6-6-5-5-5-5---|
B|-------------------|-------------------------------|
G|-------------------|-------------------------------|
D|-------------------|-------------------------------|
A|-------------------|-------------------------------|
E|-------------------|-------------------------------|

e|-3-3-x-3-3-x-x-3-3-|-3-3-x-x-3-3-------------------|
B|-------------------|-------------------------------|
G|-------------------|-------------------------------|
D|-------------------|-------------------------------|
A|-------------------|-------------------------------|
E|-------------------|-------------------------------|

[Chorus]
e|---------------------|
B|-11------------------|
G|-12---8-------10-----|
D|-12---8---8---10-----|
A|-10---6---8---8------|
E|----------6----------|
   Gm   D#  A#  F

Gm          D#
All the time I just want 
A#             F
to Let go and go and... (get a hold of it)
Gm        D#             A#   F
All the time I just want to
Gm         D#
All the time I just want to 
A#              F
Fuck it up and say I'll... (get a hold of it)
Gm        D#             A#     F
All the time I just want to

e|-10-8-6-6-8-6-|---------6-|--5-5-5-8-10-----|
B|-x--x-x-x-x-x-|--6-6-6--x-|--x-x-x-x-x------|
G|-7--5-3-3-5-3-|--x-x-x--3-|--2-2-2-5-7------|  (x2)
D|--------------|--3-3-3----|-----------------|
A|--------------|-----------|-----------------|
E|--------------|-----------|-----------------|

[Verse 2]
N.C
Oh, what a world I was born into
Babies are on the thrones
Hush little buddy – you'll get sick
And shiver to your bones
Old wild river take me to the sea
Be free
Like pilgrims on the Camino
I go, I go..

[Pre-Chorus 2]
(I simplified the death notes, but it's a constantly picking)
e|-15-15-x-15-15-x-x-18/-|-15-15-x-x-15-15-18-18-18-18-17-17-17-17----|
B|-----------------------|--------------------------------------------|
G|-----------------------|--------------------------------------------|
D|-----------------------|--------------------------------------------|
A|-----------------------|--------------------------------------------|
E|-----------------------|--------------------------------------------|

e|-15-15-x-15-15-x-x-18/-|-15-15-x-x-15-15----------------------------|
B|-----------------------|--------------------------------------------|
G|-----------------------|--------------------------------------------|
D|-----------------------|--------------------------------------------|
A|-----------------------|--------------------------------------------|
E|-----------------------|--------------------------------------------|

[Chorus]
e|----------------------|
B|-11-------------------|
G|-12---8-------10------|
D|-12---8---8---10------|
A|-10---6---8---8-------|
E|----------6-----------|
   Gm   D#  A#  F

Gm          D#
All the time I just want 
A#             F
to Let go and go and... (get a hold of it)
Gm        D#             A#   F
All the time I just want to
Gm         D#
All the time I just want to 
A#              F
Fuck it up and say I'll... (get a hold of it)
Gm        D#             A#     F
All the time I just want to

[Outro]
e|-----------------------|
B|-11---8---6---10-------|
G|-12---8---7---10-------|
D|-12---8---8---10-------|
A|-10--------------------|
E|-----------------------|
   Gm   D#  A#  F

Gm     D#          A#           F 
Why do you and I live on and on?
Gm     D#          A#           F 
I believe it's not a question anymore
Gm     D#          A#           F 
Why do you and I live on and on?
Gm     D#          A#           F 
I believe it's not a question anymore

e|-10-8-6-6-8-6-|---------6-|--5-5-5-8-10-----|
B|-x--x-x-x-x-x-|--6-6-6--x-|--x-x-x-x-x------|
G|-7--5-3-3-5-3-|--x-x-x--3-|--2-2-2-5-7------| (x8)
D|--------------|--3-3-3----|-----------------|
A|--------------|-----------|-----------------|
E|--------------|-----------|-----------------|


************************************

| x  Dead note
| /  Slide up

************************************

            
            
Suggest correction
Creating personal tab
Creating personal tab
You can edit any tab online and save it as your Personal.

You can edit, replace or remove any tab part or add personal notes – all changes will be seen only by you.

Personal tabs can be accessed anytime from any device, even offline.
Learn more »
Give kudos to tab author, rate the tab!
1 2 3 4 5
comments
print report bad tab
guest
You may want to rate the tab now too:
select rating
Wanna post a correction for this tab? Suggest correction