Oops, an error
Loading. Please wait.

Electric Love tab

version 2
version 2

Whole song

  • This is a fingerstyle version created by ear, loos... Show more
  • Full fingerstyle arrangement by Andrew Foy.
  • The tab is the radio edit, after the music video.

Video

by BØRNS
1,447 views 39 this week
no commentswrite comment
1 2 3 4 5
x 3
add to favorites
×
Save as Personal and add changes to this tab that will be seen only by you. Learn more ›
×
You can save this tab as Personal to edit and correct it or add notes. All changes will be seen only by you. Learn more »
launch autoscroll
font size
0
reset
how to read this tab
guitar tuner
edit
Autoscroll
slow
fast
+/-
esc
set tempo
stop
About this tab version
Full fingerstyle arrangement by Andrew Foy. Was this info helpful? Yes No
https://www.youtube.com/watch?v=JErYDAn58Zs

[Intro]
                                                o             o              o
e|----3-0---------3-0--------3-0-------3-0--------3p0------------3p0-----------|
B|---------3p0---------3p0-------3p0-------3p0-----------3p0------------3p0----|
G|--0-----------0----------0---------0----------0------------------------------|
D|-----------------------------------------------------------------------------|
A|-----------------------------------------------------x--------------x--------|
E|-----------------------------------------------------x--------------x--------|

e|-3p0-----------------------3--3-------3--3-----3--3--7---7-----0-----0-------|
B|---------------------------3--3-------3--3-----3--3--7---7-----0-----0-------|
G|---------------------------0--0-------0--0-----0--0--7---7-----0-----0-------|
D|--------------2p0----0-----0--0-------0--0-----0--0--7---7-----2-----2-------|
A|------x------------2---2-0-2--x----------x--------x--7---x-----2-----x-------|
E|------x----3---------------3--x--3-3-----x-3-3----x--7-7-x--0--0--0--x--0-0--|

e|-0-0-----0--------------------3--3-------3--3--7---7-----0-----0------0--0---|
B|-0-0-----0--------------------3--3-------3--3--7---7-----0-----0------0--0---|
G|-0-0-----0--------------------0--0-------0--0--7---7-----0-----0------0--0---|
D|-2-2-----2----0h2p0-----------0--0-------0--0--7---7-----2-----2------2--2---|
A|---x-----x----------2-x--2p0--2--x----------x--7---x-----2-----x---------x---|
E|---x-0-0-x--0---------x-------3--x--3-3-----x--7-7-x--0--0--0--x-0-0-----x--0|

e|---0-------------------------------------------------------------------------|
B|---0-------------------------------------------------------------------------|
G|---0-------------------------------------------------------------------------|
D|---2------0h2p0--------------------------------------------------------------|
A|---x------------2--x--2p0----------------------------------------------------|
E|-0-x---0-----------x---------------------------------------------------------|

[Verse]
e|-----------------------------------------------------------------------------|
B|-2/3--------0-----------------(0)--/8---7-----5\--(0)----0-(0)---------------|
G|-0----------0-----------------(0)-----------------(0)----0-(0)-2----/4-(4)---|
D|---------------(0)----------0-(0)--------------------------------------------|
A|-------x------------x----------x---0----x--0-------x--------x-----------x----|
E|-2/3---x--3---------x--3-3-----x--------x-----0----x--0-----x-----0-----x----|

e|-----------------------------------------------------------------------------|
B|-------------------2/3--------0-------------------(0)-/8-7----5\--(0)-----0--|
G|-------------------0----------0-------------------(0)-------------(0)-----0--|
D|---0h2p0-------------------------(0)----------0---(0)------------------------|
A|---------2--x-2p0-------x-------------x------------x--0--x-0-------x---------|
E|-0----------x------2/3--x--3----------x--3-3-------x-----x----0----x---0-----|

e|-----------------------------------------------------------------------------|
B|-(0)-------------------------------------------------------------------------|
G|-(0)--2/4\2p0----------------------------------------------------------------|
D|-----------------------0h2p0-------------------------------------------------|
A|--x--------------x------------2--x--2p0--------------------------------------|
E|--x-----0--------x--0------------x-------------------------------------------|

[Pre-Chorus]
e|-----------------------------------------------------------------------------|
B|-----------------------------------------(0)---------------------------------|
G|-------0-----0-0-0-0-------0---------0---(0)--------------------x------------|
D|------------------------------------------------0----(0)-----x---------------|
A|--2/3-----x--3--------x-3------x--2-------x--------x------x---------x--2/3---|
E|----------x-----------x----3---x-----3----x--3-----x------x---------x--------|

e|-----------------------------------------------------------------------------|
B|-----------------------------------------------------------------------------|
G|-0-----0----0--------0-----------------x-------------------------------------|
D|-2--------2-------------------0-----x----------------------------------------|
A|----x--3-------3--x--------x-----x--------x----------------------------------|
E|----x-------------x--3--3--x--3--x--------x----------------------------------|

[Chorus]
e|-2/3---2------0------0--0-----0-----0------------------0--3---3/5-5------5-5-|
B|-2/3--(3)-----3--3---1--1-----1--3-----3---------0--3--0--0----------(0)-----|
G|------(0)-----0--0---0--0--------------0------0--0--0--0-------------(0)-----|
D|------(0)--------0------------------0----------------------------------------|
A|-------x---------x---3-----x---------------x--------x-----x---3-------x------|
E|-2/3---x---3-----x---------x---------------x-----3--x--3--x-----------x------|

e|-5-5/7-----------5/7--5--3--5-3--2--0--2--0----------------------------------|
B|------------(0)---------(0)--------(0)----1---3-------0-----------------0----|
G|------------(0)---------(0)--------(0)----0--(0)------0-----0h2--------------|
D|-0----------(0)---------------------------------------------0-------0--------|
A|---------x---------------x----------x-----3---x----3-----x--------x--------x-|
E|---------x-------0-------x--0-------x---------x----------x--------x--------x-|

e|----------------------7--7-------7-7-------7-7--5--5------0-0-------0-0------|
B|---1--3-----3/5-5/8---0--0-------0-0-------0-0--5--5------0-0-------0-0------|
G|---0--0---------(0)---4--4-------4-4-------4-4--5--5------0-0-------0-0------|
D|-0-------0------(0)---5--5-------5-5-------5-5--7--7\-----2-2-------2-2------|
A|------x----------x-------x---------x---------x--5--x------2-x-------2-x------|
E|------x----------x----3--x--3-3----x--3-3----x--5--x---0--0-x--0-0----x--0---|

e|--0-----0----0----0--7--7-------7-7-------7-7--5--5----0-0-------0--0--------|
B|--0--3--0-3--0-3--0--0--0-------0-0-------0-0--5--5----0-0-------0--0--------|
G|--0-----0----0----0--4--4-------4-4-------4-4--5--5----0-0-------0--0--------|
D|---------------------5--5-------5-5-------5-5--7--7\---2-2-------2--2--------|
A|--------x---------x-----x---------x---------x--5--x----2-x----------x--------|
E|--------x-0-------x--3--x--3-3----x--3-3----x--5--x----0-x--0-0-----x--0-0---|

e|--0--0-----------------------------------------------------------------------|
B|--0--0-----------------------------------------------------------------------|
G|--0--0-----------------------------------------------------------------------|
D|--2--2-----0h2p0-------------------------------------------------------------|
A|-----x-----------2--x--2p0---------------------------------------------------|
E|-----x--0-----------x--------------------------------------------------------|

[Verse]
e|-----------------------------------------------------------------------------|
B|-2/3--------0------------------7/8--7-----5\--(0)-----0-(0)------------------|
G|-0----------0-----------(0)----4/5------------(0)-----0-(0)--2-------/4-(4)--|
D|---------------0------------------------------(0)----------------------------|
A|------x-----------x---------x--0----x--0-------x---------x---------------x---|
E|-2/3--x--3--------x-3-3-----x-------x----------x--0------x-------0-------x---|

e|-----------------------------------------------------------------------------|
B|------------------2/3---------0------------------(0)-------------------------|
G|------------------0-----------0------------------(0)---0--2--2/4\2--0h2-0h2--|
D|---0h2p0-------------------------(0)----------0--(0)-------------------------|
A|---------2-x-2p0--------x-------------x-----------x-------x------x-----------|
E|-0---------x------2/3---x--3----------x--3-3------x--3----x--0---x--0--------|

e|-----------------------------------------------------------------------------|
B|-----------------------------------------------------------------------------|
G|----0------------------------------------------------------------------------|
D|---------2--------0h2p0------------------------------------------------------|
A|-x----------x------------2-x-2p0---------------------------------------------|
E|-x-----0----x--0-----------x-------------------------------------------------|

[Pre-Chorus]
e|-----------------------------------------------------------------------------|
B|-----------------------------------------(0)---------------------------------|
G|-------0-----0-0-0-0-------0---------0---(0)--------------------x------------|
D|------------------------------------------------0----(0)-----x---------------|
A|--2/3-----x--3--------x-3------x--2-------x--------x------x---------x--2/3---|
E|----------x-----------x----3---x-----3----x--3-----x------x---------x--------|

e|-----------------------------------------------------------------------------|
B|-----------------------------------------------------------------------------|
G|-0-----0----0---------0-----------0------------------------------------------|
D|-2--------2---------0----------0-----------0---------------------------------|
A|----x--3-------3--x---------x-----------x------------------------------------|
E|----x-------------x---3--3--x--3-----3--x------------------------------------|

[Chorus]
e|-2/3---2------0------0--0-----0-----0------------------0--3---3/5-5------5-5-|
B|-2/3--(3)-----3--3---1--1-----1--3-----3---------0--3--0--0----------(0)-----|
G|------(0)-----0--0---0--0--------------0------0--0--0--0-------------(0)-----|
D|------(0)--------0------------------0----------------------------------------|
A|-------x---------x---3-----x---------------x--------x-----x---3-------x------|
E|-2/3---x---3-----x---------x---------------x-----3--x--3--x-----------x------|

e|-5-5/7-----------5/7--5--3--5-3--2--0--2--0----------------------------------|
B|------------(0)---------(0)--------(0)----1---3-------0-----------------0----|
G|------------(0)---------(0)--------(0)----0--(0)------0-----0h2--------------|
D|-0----------(0)---------------------------------------------0-------0--------|
A|---------x---------------x----------x-----3---x----3-----x--------x--------x-|
E|---------x-------0-------x--0-------x---------x----------x--------x--------x-|

e|----------------------7--7-------7-7-------7-7--5--5------0-0-------0-0------|
B|---1--3-----3/5-5/8---0--0-------0-0-------0-0--5--5------0-0-------0-0------|
G|---0--0---------(0)---4--4-------4-4-------4-4--5--5------0-0-------0-0------|
D|-0-------0------(0)---5--5-------5-5-------5-5--7--7\-----2-2-------2-2------|
A|------x----------x-------x---------x---------x--5--x------2-x-------2-x------|
E|------x----------x----3--x--3-3----x--3-3----x--5--x---0--0-x--0-0----x--0---|

e|--0-----0----0----0--7--7-------7-7-------7-7--5--5----0-0-------0--0--------|
B|--0--3--0-3--0-3--0--0--0-------0-0-------0-0--5--5----0-0-------0--0--------|
G|--0-----0----0----0--4--4-------4-4-------4-4--5--5----0-0-------0--0--------|
D|---------------------5--5-------5-5-------5-5--7--7\---2-2-------2--2--------|
A|--------x---------x-----x---------x---------x--5--x----2-x----------x--------|
E|--------x-0-------x--3--x--3-3----x--3-3----x--5--x----0-x--0-0-----x--0-0---|

e|--0--0-----------------------------------------------------------------------|
B|--0--0-----------------------------------------------------------------------|
G|--0--0-----------------------------------------------------------------------|
D|--2--2-----0h2p0-------------------------------------------------------------|
A|-----x-----------2--x--2p0---------------------------------------------------|
E|-----x--0-----------x--------------------------------------------------------|

[Bridge]
e|----<15>-<15>-<15>------<12>--0-----------------------0----------------------|
B|-3-----------------<15>-------1--<8>-<8>-<8>----------0-------0h1--<12>------|
G|-0----------------------------2--------------<7>-<9>--0-------0--------------|
D|-0----------------------------2-----------------------2--5/7--2--------------|
A|-2----------------------------0-----------------------2-------3--------------|
E|-3----------------------------------------------------0----------------------|

e|----<15>-<15>-<15>------<12>--0-----------------------0----------------------|
B|-3-----------------<15>-------1--<8>-<8>-<8>----------0-------0h1--0h1-0-----|
G|-0----------------------------2--------------<7>-<9>--0-------0-----------2--|
D|-0----------------------------2-----------------------2--5/7--2--------------|
A|-2----------------------------0-----------------------2-------3--------------|
E|-3----------------------------------------------------0----------------------|

e|-----------3-3-3-----0--0----------------3-3-3-----0-0-----------------------|
B|-----0------------3--0--0------(1)-(1)----------3--0-0-------------------0h1-|
G|---------------------0---------(2)-(2)-------------0-0------------0---2--0---|
D|-------------------------------(2)-(2)--------------------------2----(0)-2---|
A|--------x------------x------0-------x----0---------x--------x---------x--3---|
E|--3-----x--3---------x--------------x--------------x-----0--x-0-------x------|

e|------------------------------3-3-3-----0-0-------------3-3-3----0-0---------|
B|-0-----0h1-0-----------0-------------3--0-0-----(1)-(1)-------3--0-0---------|
G|----2------------2-----0----------------0-------(2)-(2)----------0---------0-|
D|------------------------------------------------(2)-(2)------------------2---|
A|---x----------x------------x------------x----0-------x---0-------x-----------|
E|---x----------x-----3------x--3---------x------------x-----------x-----0-----|

e|----0-------------0----------------------------------------------------------|
B|----1--3-------1-----3-----1-------------------------------------------------|
G|-2--0-----(0)----------------------------------------------------------------|
D|----------(2)----------------------------------------------------------------|
A|-x--3------x---3--------x----------------------------------------------------|
E|-x---------x------------x----------------------------------------------------|

[Chorus]
e|---------------------------5---5-------5-5--(0)-(0)------(0)-(0)-----(0)-(0)-|
B|-----3--(3)------3-(3)-----5---5-------5-5---8---8--------8---8-------8---8--|
G|-----0--(0)------0-(0)-----5---5-------5-5---9---9--------9---9-------9---9--|
D|---------------------------7---7-------7-7---9---9--------9---9-------9---9--|
A|---------x----------x---0----0-x--0-0----x-------x------------x-----------x--|
E|--3------x--3-3-----x----------x---------x-----0-x---0-0------x--0-0------x--|

e|-----------3-2-0------0-0-0---0----------------------0--3--3/5-5-----5-5-----|
B|-10--10\----------3---1-----3----3------------0--3---0--0--------(0)---------|
G|--9---9\--------------0----------0---------x--0--0---0-----------(0)---------|
D|-10--10\----------------------0---------x------------------------------------|
A|--8---8\--------------3--------------x-----------x------x--3------x----------|
E|------x----3-------------------------x--------3--x---3--x---------x----------|

e|-5-5/7-----------5/7--5--3--5-3--2--0--2--0----------------------------------|
B|------------(0)---------(0)--------(0)----1---3-------0-----------------0----|
G|------------(0)---------(0)--------(0)----0--(0)------0-----0h2--------------|
D|-0----------(0)---------------------------------------------0-------0--------|
A|---------x---------------x----------x-----3---x----3-----x--------x--------x-|
E|---------x-------0-------x--0-------x---------x----------x--------x--------x-|

e|----------------------7--7-------7-7-------7-7--5--5------0-0-------0-0------|
B|---1--3-----3/5-5/8---0--0-------0-0-------0-0--5--5------0-0-------0-0------|
G|---0--0---------(0)---4--4-------4-4-------4-4--5--5------0-0-------0-0------|
D|-0-------0------(0)---5--5-------5-5-------5-5--7--7\-----2-2-------2-2------|
A|------x----------x-------x---------x---------x--5--x------2-x-------2-x------|
E|------x----------x----3--x--3-3----x--3-3----x--5--x---0--0-x--0-0----x--0---|

e|--0-----0----0----0--7--7-------7-7-------7-7--5--5----0-0-------0--0-----0--|
B|--0--3--0-3--0-3--0--0--0-------0-0-------0-0--5--5----0-0-------0--0-----0--|
G|--0-----0----0----0--4--4-------4-4-------4-4--5--5----0-0-------0--0-----0--|
D|---------------------5--5-------5-5-------5-5--7--7\---2-2-------2--2--------|
A|--------x---------x-----x---------x---------x--5--x----2-x----------x--------|
E|--------x-0-------x--3--x--3-3----x--3-3----x--5--x----0-x--0-0-----x--0-----|

e|-----0-----0-----------------------------------------------------------------|
B|--3--0--3--0--3---0--0-------------------------------------------------------|
G|-----0-----0------0--0-------------------------------------------------------|
D|-----------------------------------------------------------------------------|
A|-----x------------x----------------------------------------------------------|
E|-----x--0---------x------(3)-------------------------------------------------|


************************************

| p    Pull-off
| x    Dead note
| h    Hammer-on
| (n)  Ghost note
| /    Slide up
| \    Slide down
|<->   Harmonic
| o    Wrist thump
 

************************************

            
            
Suggest correction
Creating personal tab
Creating personal tab
You can edit any tab online and save it as your Personal.

You can edit, replace or remove any tab part or add personal notes – all changes will be seen only by you.

Personal tabs can be accessed anytime from any device, even offline.
Learn more »
Give kudos to tab author, rate the tab!
1 2 3 4 5
comments
print report bad tab
guest
You may want to rate the tab now too:
select rating
Wanna post a correction for this tab? Suggest correction