Oops, an error
Loading. Please wait.

Hän Jolla On Kaikki tab

211 views 6 this week
no commentswrite comment
1 2 3 4 5
3 more votes to show rating
add to favorites
×
Save as Personal and add changes to this tab that will be seen only by you. Learn more ›
×
You can save this tab as Personal to edit and correct it or add notes. All changes will be seen only by you. Learn more »
launch autoscroll
font size
0
reset
how to read this tab
guitar tuner
edit
Autoscroll
slow
fast
+/-
esc
set tempo
stop
Author
Difficulty
intermediate
About this tab version
This tab is based on live performances, including chords. Was this info helpful? Yes No
[Intro]
   Em          D     C
e|------------------------------------|
B|----------------------1-----1-----1-|
G|----9-----9-----9-----0-----0-----0-|
D|----9-----9-----9-------------------|  (x4)
A|-7-----6-----5-----3-----3-----3----|
E|------------------------------------|

[Chorus]
   Em                  D        C
e|--------------------------------------------------------------------|
B|------------------------------------1---------1---------1---------1-|
G|------9---------9---------9-----------------------------------------|
D|------9---------9---------9---------2---------2---------2---------0-|
A|-7---------6---------5---------3---------3---------3---------3------|
E|--------------------------------------------------------------------|

     Tänä    iltana    yhdessä   tan-ssi - taan
     Ja      kaikki on   i-loi - sii
     Kaikki  tärkeet   ovattänne löy - tä-neet
     Meil on paljon    ys - tä - vii


[Verse 1]
   G                   D                   C                   D
e|------------------------------------------------------------------------------|
B|------3---------3---------3---------3---------1---------1---------3---------3-|
G|------0---------0---------2---------2-----------------------------2---------2-|
D|---------------------0---------0--------------2---------0----0---------0------|
A|-----------------------------------------3---------3--------------------------|
E|-3---------3------------------------------------------------------------------|
             Nyt on    kaikki  niin        hyvin


   Em                  D                   C                   D
e|------------------------------------------------------------------------------|
B|------0---------0---------3---------3---------1---------1---------3---------3-|
G|------0---------0---------2---------2-----------------------------2---------2-|
D|---------------------0---------0--------------2---------0----0---------0------|
A|-2---------2-----------------------------3---------3--------------------------|
E|------------------------------------------------------------------------------|
        Ol - taispa    täl-leen  i - kui - sesti


   G                   D                   C                   D
e|------------------------------------------------------------------------------|
B|------3---------3---------3---------3---------1---------1---------3---------3-|
G|------0---------0---------2---------2-----------------------------2---------2-|
D|---------------------0---------0--------------2---------0----0---------0------|
A|-----------------------------------------3---------3--------------------------|
E|-3---------3------------------------------------------------------------------|
             Voi kun   voi-tais  jos-kus   sa-noo


   Em                  D                   C                   D
e|------------------------------------------------------------------------------|
B|------0---------0---------3---------3---------1---------1---------3---------3-|
G|------0---------0---------2---------2-----------------------------2---------2-|
D|---------------------0---------0--------------2---------0----0---------0------|
A|-2---------2-----------------------------3---------3--------------------------|
E|------------------------------------------------------------------------------|
        Et   mei-dän   rak-kaus  kai-ken   kes-ti


[Interlude]
   Em          D     C
e|------------------------------------|
B|----------------------1-----1-----1-|
G|----9-----9-----9-----0-----0-----0-|
D|----9-----9-----9-------------------|  (x4)
A|-7-----6-----5-----3-----3-----3----|
E|------------------------------------|

[Chorus] 
   Em                  D        C
e|--------------------------------------------------------------------|
B|------------------------------------1---------1---------1---------1-|
G|------9---------9---------9-----------------------------------------|
D|------9---------9---------9---------2---------2---------2---------0-|
A|-7---------6---------5---------3---------3---------3---------3------|
E|--------------------------------------------------------------------|

     Tänä    iltana    yhdessä   tan-ssi - taan
     Ja      kaikki on   i-loi - sii
     Ei      kuultu v. lau - sei-ta
     Kun     meitä     vi-hit - tiin


[Verse 2]
   G                   D                   C                   D
e|------------------------------------------------------------------------------|
B|------3---------3---------3---------3---------1---------1---------3---------3-|
G|------0---------0---------2---------2-----------------------------2---------2-|
D|---------------------0---------0--------------2---------0----0---------0------|
A|-----------------------------------------3---------3--------------------------|
E|-3---------3------------------------------------------------------------------|
             En oo     kaik-kein komein    jät-kä


   Em                  D                   C                   D
e|------------------------------------------------------------------------------|
B|------0---------0---------3---------3---------1---------1---------3---------3-|
G|------0---------0---------2---------2-----------------------------2---------2-|
D|---------------------0---------0--------------2---------0----0---------0------|
A|-2---------2-----------------------------3---------3--------------------------|
E|------------------------------------------------------------------------------|
        Eikä per-heel-läni       o - le   rahaa


   G                   D                   C                   D
e|------------------------------------------------------------------------------|
B|------3---------3---------3---------3---------1---------1---------3---------3-|
G|------0---------0---------2---------2-----------------------------2---------2-|
D|---------------------0---------0--------------2---------0----0---------0------|
A|-----------------------------------------3---------3--------------------------|
E|-3---------3------------------------------------------------------------------|
        Mut  se   ei  ol - lu   mi - kään es - te


   Em                  D                   C                   tai vain Em-sointua
e|------------------------------------------------------------------------------|
B|------0---------0---------3---------3---------1---------1---------3---------3-|
G|------0---------0---------2---------2-----------------------------2---------2-|
D|---------------------0---------0--------------2---------0----0---------0------|
A|-2---------2-----------------------------3---------3--------------------------|
E|------------------------------------------------------------------------------|
        Tääonsitä mistäko - vat  jät-kät   lau-laa


[Bridge]
 strum / soita sointuna | tai A -sointu |    sointuna
   E                       ^   ^   ^      E             C
e|-0-----------------------0---0---0------0-------------0-|
B|-0-----------------------0---0---0------0-------------1-|
G|-1-----------------------6---8---6------3-------------0-|
D|-2-----------------------7---9---7------2-------------2-|
A|-2-----------------------7---9---7------2-------------3-|
E|-0--------------------------------------0---------------|
                           ^   ^   ^
      Täällä               juh-li--taan   nyt rakkautta


 sointuna               | tai A  | E  |     sointuna
   E                       ^   ^   ^      E         C
e|-0-----------------------0---0---0------0---------0-|
B|-0-----------------------0---0---0------0---------1-|
G|-1-----------------------6---8---3------3---------0-|
D|-2-----------------------7---9---2------2---------2-|
A|-2-----------------------7---9---2------2---------3-|
E|-0-------------------------------0------0-----------|
                           ^   ^   ^
      Kahden               yh--tei-stä    kauneutta


 sointuna                 |  tai A   | E  |      sointuna   |   Em
   E                       ^   ^   ^   ^        C        D      ^
e|-0-----------------------0---0---0---0--------0--------2------0--|
B|-0-----------------------0---0---0---0--------1--------3------0--|
G|-1-----------------------6---8---6---3--------0--------2------0--|
D|-2-----------------------7---9---7---2--------2--------0------2--|
A|-2-----------------------7---9---7---2--------3---------------2--|
E|-0-----------------------------------0------------------------0--|
                           ^   ^   ^   ^                        ^
   Tänne                   me  yh-des--sä   palataan aina uudestaan


[Verse 3]
   Em                      D           C
e|---------------------------------------------------------------------------------|
B|-------------------------------------------1-----------1-----------1-----------1-|
G|-------9-----------9-----------9-------------------------------------------------|
D|-------9-----------9-----------9-----------2-----------2-----------2-----------0-|
A|-7-----------6-----------5-----------3-----------3-----------3-----------3-------|
E|---------------------------------------------------------------------------------|
     Kelpaat   mulle      vaikka oisit ryp - pyi - nen
     Vaikka    oi - sit    hetken joku muu
   Vaikka      oi - sit    kuin--ka    tau - ti - nen
   Kelpaat     sit  kun    sult ei   aukee        suu


[Outro]
   G                   D                   C                   D
e|------------------------------------------------------------------------------|
B|------3---------3---------3---------3---------1---------1---------3---------3-|
G|------0---------0---------2---------2-----------------------------2---------2-|
D|---------------------0---------0--------------2---------0----0---------0------|
A|-----------------------------------------3---------3--------------------------|
E|-3---------3------------------------------------------------------------------|
   Mut   on  sussakin  joskus    kestä -- mistä


   Em                  D                   C                   D
e|------------------------------------------------------------------------------|
B|------0---------0---------3---------3---------1---------1---------3---------3-|
G|------0---------0---------2---------2-----------------------------2---------2-|
D|---------------------0---------0--------------2---------0----0---------0------|
A|-2---------2-----------------------------3---------3--------------------------|
E|------------------------------------------------------------------------------|
        Oot  välillä   hy - vin  hy - vin  vai--kee


   G                   D                   C                   D
e|------------------------------------------------------------------------------|
B|------3---------3---------3---------3---------1---------1---------3---------3-|
G|------0---------0---------2---------2-----------------------------2---------2-|
D|---------------------0---------0--------------2---------0----0---------0------|
A|-----------------------------------------3---------3--------------------------|
E|-3---------3------------------------------------------------------------------|
       Mut  se   on    yk - si  syy        li - sää


                                           Em
   Em                  D                   ^
e|-----------------------------------------0------|
B|------0---------0---------3---------3----0------|
G|------0---------0---------2---------2----0------|
D|---------------------0---------0---------2------|
A|-2---------2-----------------------------2------|
E|-----------------------------------------0------|
                                           ^
             Rakas -- taa  sua   yli       kaiken

            
            
Suggest correction
Creating personal tab
Creating personal tab
You can edit any tab online and save it as your Personal.

You can edit, replace or remove any tab part or add personal notes – all changes will be seen only by you.

Personal tabs can be accessed anytime from any device, even offline.
Learn more »
Give kudos to tab author, rate the tab!
1 2 3 4 5
comments
print report bad tab
guest
You may want to rate the tab now too:
select rating
Wanna post a correction for this tab? Suggest correction