Oops, an error
Loading. Please wait.

新宝島 bass

175 views 1 this week
no commentswrite comment
1 2 3 4 5
3 more votes to show rating
add to favorites
×
Save as Personal and add changes to this tab that will be seen only by you. Learn more ›
×
You can save this tab as Personal to edit and correct it or add notes. All changes will be seen only by you. Learn more »
launch autoscroll
font size
0
reset
guitar tuner
edit
Autoscroll
slow
fast
+/-
esc
set tempo
stop
About this tab version
The verses are almost the same throughout the song, except during the guitar solo. You may add mutes to the verses, in the timing of the drums. Was this info helpful? Yes No
Shin Takarajima
Sakanaction

[Intro]
Gb|--------------|-------------|----------------|---------------|-------------|
Db|--------------|-------------|----------------|---------------|-------------|
Ab|------/9---\7-|----7---6\---|-4\-------------|---------------|-/4~---/16~--|
Eb|-/7~----------|-------------|--------2---/4~-|------/7--7\---|-------------|

[Verse]
Gb|-------------|---------------|    |-------------|----------------|
Db|-------------|---------------|    |-------------|----------------|
Ab|-----4-4-----|---------------| x3 |-----4-4-----|----------------|
Eb|-4---------2-|-2-----7--7--6-|    |-4---------2-|-2-----7--6-7-6-|

Gb|-------------|---------------|    |-------------|---------------|
Db|-------------|---------------|    |-------------|---------------|
Ab|-----4-4-----|---------------| x3 |--------4-4--|---------------|
Eb|-4---------2-|-2-----7--7--6-|    |-4--4--------|--2-2-2-2-4-4\-|

[1st Chorus]
Gb|-----------------|-----------------|-----------------|-----------------|
Db|-----------------|-----------------|-----------------|-----------------|
Ab|-7-7-7-7-7-7-7-7-|-6-6-6-6-6-6-6-6-|-----------------|-----------------|
Eb|-----------------|-----------------|-4-4-4-4-4-4-4-4-|-6-6-6-6-6-6-6-6-|

Gb|-----------------|-----------------|-----------------|-----------------|
Db|-----------------|-----------------|-----------------|-----------------|
Ab|-7-7-7-7-7-7-7-7-|-6-6-6-6-6-6-6-6-|-----------------|-----------------|
Eb|-----------------|-----------------|-4-4-4-4-4-4-4-4-|-6-6-6-7-7-7-7-7-|

Gb|-----------------|-----------------|-----------------|-----------------|
Db|-----------------|-----------------|-----------------|-----------------|
Ab|-7-7-7-7-7-7-7-7-|-6-6-6-6-6-6-6-6-|-----------------|-----------------|
Eb|-----------------|-----------------|-4-4-4-4-4-4-4-4-|-6-6-6-6-6-6-6-6-|

Gb|-----------------|-----------------|-----------------|-----------------|
Db|-----------------|-----------------|-----------------|-----------------|
Ab|-7-7-7-7-7-7-7-7-|-6-6-6-6-6-6-6-6-|-----------------|-----------------|
Eb|-----------------|-----------------|-4-4-4-4-4-4-4-4-|-6-6-6-7-7-7-7\--|

[2nd verse]
Gb|-------------|---------------|
Db|-------------|---------------|    
Ab|-----4-4-----|---------------| x10 
Eb|-4---------2-|-2-----7--7--6-|    

Gb|-------------|----------------|-------------|----------------|
Db|-------------|----------------|-------------|----------------|
Ab|-----4-4-----|----------------|--------4-4--|----------------|
Eb|-4---------2-|-2-----7--7-7-6-|-4--4--------|--2-2-2-2-4-4-4-|

[2nd chorus] x2
Gb|-----------------|-----------------|-----------------|-----------------|
Db|-----------------|-----------------|-----------------|-----------------|
Ab|-7-7-7-7-7-7-7-7-|-6-6-6-6-6-6-6-6-|-----------------|-----------------|
Eb|-----------------|-----------------|-4-4-4-4-4-4-4-4-|-6-6-6-6-6-6-6-6-|

Gb|-----------------|-----------------|-----------------|-----------------|
Db|-----------------|-----------------|-----------------|-----------------|
Ab|-7-7-7-7-7-7-7-7-|-6-6-6-6-6-6-6-6-|-----------------|-----------------|
Eb|-----------------|-----------------|-4-4-4-4-4-4-4-4-|-6-6-6-7-7-7-7-7-|

[Verse(guitar solo)]
Gb|---------------|---------------|--------------|--------------|
Db|---------------|---------------|--------------|--------------|
Ab|-----4-4-------|---------------|-----4-4------|-----2--/4----|
Eb|-4-------0-4-2-|--2---7--7-7-6-|-4--------4-2-|--2---------2-|

Gb|--------------|--------------------|--------------|------4---3-4-3-|
Db|----------1---|--------------------|----------4---|--4-------------|
Ab|-----4-4------|--------1-2---2-2-1-|-----4-4------|----------------|
Eb|-4----------2-|--2---2-------------|-4----------2-|----------------|

Gb|--------------|----------------|-----------------|----------------|
Db|-6------------|----------------|-----------------|----------------|
Ab|-----6-4------|----1-2---2-2-1-|-------6-4-------|----1-2---2-2---|
Eb|----------4-2-|--2-------------|-4-4---------4-2-|--2-----------2-|

Gb|---------------|----------------|----------------|--11-11-11-11-13-13\--|
Db|---------------|-----8-9\-------|----------------|----------------------|
Ab|-----4-4--/9-9-|-9-9--------2-1-|------------4-4-|----------------------|
Eb|-4-------------|----------------|-4--4--4--4-----|----------------------|

[Final chorus]
Gb|-----------------|-----------------|-----------------|-----------------|
Db|-----------------|-----------------|-----------------|-----------------|
Ab|-7-7-7-7-7-7-7-7-|-6-6-6-6-6-6-6-6-|-----------------|-----------------|
Eb|-----------------|-----------------|-4-4-4-4-4-4-4-4-|-6-6-6-6-6-6-6-6-|

Gb|-----------------|-----------------|-----------------|-----------------|
Db|-----------------|-----------------|-----------------|-----------------|
Ab|-7-7-7-7-7-7-7-7-|-6-6-6-6-6-6-6-6-|-----------------|-----------------|
Eb|-----------------|-----------------|-4-4-4-4-4-4-4-4-|-6-6-6-6-7-7-7-7-|

Gb|-----------------|-----------------|-----------------|-----------------|
Db|-----------------|-----------------|-----------------|-----------------|
Ab|-7-7-7-7-7-7-7-7-|-6-6-6-6-6-6-6-6-|-----------------|-----------------|
Eb|-----------------|-----------------|-4-4-4-4-4-4-4-4-|-6-6-6-6-6-6-6-6-|

Gb|-----------------|-----------------|-----------------|----------------|
Db|-----------------|-----------------|-----------------|----------------|
Ab|-7-7-7-7-7-7-7-7-|-6-6-6-----------|-----------------|----------------|
Eb|-----------------|-------3-3-3-3-3-|-4-4-4-4-4-4-4-4-|-/16-16-16-16\--|

Gb|-----------------|-----------------|-----------------|-----------------|
Db|-----------------|-----------------|-----------------|-----------------|
Ab|-7-7-7-7-7-7-7-7-|-6-6-6-6-6-6-6-6-|-----------------|-----------------|
Eb|-----------------|-----------------|-4-4-4-4-4-4-4-4-|-6-6-6-6-6-6-6-6-|

Gb|-----------------|-----------------|-----------------|-----------------|
Db|-----------------|-----------------|-----------------|-----------------|
Ab|-7-7-7-7-7-7-7-7-|-6-6-6-6-6-6-6-6-|-----------------|-----------------|
Eb|-----------------|-----------------|-4-4-4-4-4-4-4-4-|-6-6-6-6-7-7-7-7-|

Gb|-----------------|-----------------|-----------------|-----------------|
Db|-----------------|-----------------|-----------------|-----------------|
Ab|-7-7-7-7-7-7-7-7-|-6-6-6-6-6-6-6-6-|-----------------|-----------------|
Eb|-----------------|-----------------|-4-4-4-4-4-4-4-4-|-6-6-6-7-7-7-7-7-|

Gb|-----------------|-----------------|-----------------|---------------|
Db|-----------------|-----------------|-----------------|---------------|
Ab|-7-7-7-7-7-7-7-7-|-6-6-6-----------|-----------------|---------------|
Eb|-----------------|-------3-3-3-3-3-|-4-4-4-4-4-4-4-4-|-/16---16-16\--|

Gb|-----------------|-----------------|-----------------|-----------------|
Db|-----------------|-----------------|-----------------|-----------------|
Ab|-7---7-7-7-7-7-7-|-----------------|-----------------|-----------------|
Eb|-----------------|-2-2-2-2-2-2-2-2-|-4-4-4-4-4-4-4-4-|-4-4-4-6-6-6-6-6-|

Gb|-----------------|-----------------|-----------------|-----------------|
Db|-----------------|-----------------|-6-6-6-6-6-6-6-6-|-6-6-6-9-9-9-9-9-|
Ab|-7---7-7-7-7-7-7-|-9-9-9-9-9-9-9-9-|-----------------|-----------------|
Eb|-----------------|-----------------|-----------------|-----------------|

Gb|-----------------|-----------------|-----------------|-------------------------|
Db|-----------------|-----------------|-----------------|-------------------------|
Ab|-7-7-7-7-7-7-7-7-|-9-9-9-9-9-9-9-9-|-----------------|-11-11-11-13-13-12-12-12-|
Eb|-----------------|-----------------|-4-4-4-4-4-4-4/--|-------------------------|

Gb|-----------------|-----------------|-----------------|---------------------|
Db|-----------------|-----------------|-----------------|---------------------|
Ab|-----------------|-----------------|-----------------|-11-11-11-13-13-12---|
Eb|-0---0-0-0-0-0-0-|-2-2-2-2-2-2-2-2-|-4-4-4-4-4-4-4-4-|---------------------|

[End]
Gb|-------------|-------------|----------------|-------------|
Db|-------------|-------------|----------------|-------------|
Ab|-----/9---\7-|----7---6\---|-4\-------------|-------------|
Eb|-7~----------|-------------|--------2---/4~-|------2---2--|

Gb|-------------|-----------|--------------|--------------------|
Db|-------------|-----------|--------------|--------------------|
Ab|-------------|-----------|--------------|--------------------|
Eb|-0-----2---4-|----4---2--|-0-----2---4--|----7---7----/9~----|


************************************

| \ Slide down
| / Slide up
| ~ Vibrato

************************************

            
            
Suggest correction
Creating personal tab
Creating personal tab
You can edit any tab online and save it as your Personal.

You can edit, replace or remove any tab part or add personal notes – all changes will be seen only by you.

Personal tabs can be accessed anytime from any device, even offline.
Learn more »
Give kudos to tab author, rate the tab!
1 2 3 4 5
comments
print report bad tab
guest
You may want to rate the tab now too:
select rating
Wanna post a correction for this tab? Suggest correction