Oops, an error
Loading. Please wait.

Taivas On Tumma Ja Tahmee chords

94 views 1 this week
no commentswrite comment
1 2 3 4 5
3 more votes to show rating
add to favorites
×
Save as Personal and add changes to this tab that will be seen only by you. Learn more ›
×
You can save this tab as Personal to edit and correct it or add notes. All changes will be seen only by you. Learn more »
launch autoscroll
font size
0
reset
transpose
0
reset
simplify chords
display chords
guitar tuner
edit
Autoscroll
slow
fast
+/-
esc
set tempo
stop
Author
Difficulty
intermediate
About this tab version
Based on live performances. Including tabs. Was this info helpful? Yes No
Strumming
There is no strumming pattern for this song yet. and get +5 IQ
[Intro]
Am  FM7  C  G   (x4)

[Verse 1]
Am       FM7      C    G
  Sanoit että sun elämä
Am      FM7      C       G
  Se on takkuja, tahroja täynnä
Am           FM7        C      G
  Mä tahdoin olla sinun lähellä
     Em
Koko toukokuun

e|-------------------------|
B|--8----6--5--3--1--3--1--|
G|-------------------------|
D|-------------------------|
A|-------------------------|
E|-------------------------|

Am     FM7         C     G
  Uudenvuoden aattoaamuna
Am      FM7    C           G
  Kaupunki oli kaukaa niin kaunis
Am       FM7           C       G
  Kasvot piirtyy junan ikkunaan
    Em
Ohi menevään

[Chorus]
Dm                    FM7
Taivas on tumma, samanlainen ja tahmee
    C                    G
Kun vuosi sitten tähän aikaan
Dm                    FM7
Taivas on tumma, samanlainen ja tahmee
    C                    G
Kun vuosi sitten tähän aikaan
               Am                 FM7               C
Enkä väsy katsomaa - a - aa - a - aa - a - aa - a - aan
    G                       Am                FM7           C
Kun linnut lentää matalaa - aa - a - aa - a - aa - a - aa - aan
                             Am                FM7               C
Autoletkaa vastaan tulevaa - aa - a - aa - a - aa - a - aa - a - aa

    G                   FM7                              Dm
e|--------------------------------------------------------------------------|
B|--------------------------------------------------------------------------|
G|--------------------------------------------------------------------------|
D|--------------------------------------------------------------------------|
A|--------8----7---5----3--------------------8----7---5---3-----------------|
E|--------------------------------------------------------------------------|                           
            Jos vastaan kadulla kulkisit       menneistä  mitä sä muistaisit

[Interlude]
Am  FM7  C  G   (x4)

[Verse 2]
Am      FM7         C        G
  Tukka kampaamatta roitastan
Am      FM7      C       G
  Jonninjoutavia ittekki mietin
Am       FM7            C        G
  Hetken kuitenkin sain koskettaa
Em
Elämää

e|-------------------------|
B|--8----6--5--3--1--3--1--|
G|-------------------------|
D|-------------------------|
A|-------------------------|
E|-------------------------|

Am     FM7          C      G
  Mykkyrällä mun on maailma
Am   FM7    C        G             
  Ikävää se tympeenä rähjää
Am      FM7          C       G
  Sydän sumut sotkut maskaran
     Em
Pois pyyhithän

e|-------------------------|
B|--8----6--5--3--1--3--1--|
G|-------------------------|
D|-------------------------|
A|-------------------------|
E|-------------------------|

[Chorus]
Dm                    FM7
Taivas on tumma, samanlainen ja tahmee
    C                    G
Kun vuosi sitten tähän aikaan
Dm                    FM7
Taivas on tumma, samanlainen ja tahmee
    C                    G
Kun vuosi sitten tähän aikaan
               Am                 FM7               C
Enkä väsy katsomaa - a - aa - a - aa - a - aa - a - aan
    G                       Am                FM7           C
Kun linnut lentää matalaa - aa - a - aa - a - aa - a - aa - aan
                             Am                FM7               C
Autoletkaa vastaan tulevaa - aa - a - aa - a - aa - a - aa - a - aa

    G                  FM7                                Dm
e|------------------------------------------------------------------------------|
B|------------------------------------------------------------------------------|
G|------------------------------------------------------------------------------|
D|------------------------------------------------------------------------------|
A|--------8----7---5----3--------------------8----7---5---3---------------------|
E|------------------------------------------------------------------------------|
            Jos vastaan kadulla kulkisit       menneistä  mitä sä muistaisit

[Interlude]
                       FM7                                Dm
e|-------------------------------------------------------------|
B|-------------------------------------------------------------|
G|-------------------------------------------------------------|
D|-------------------------------------------------------------|   (x3)
A|--------8----7---5----3--------------------8----7---5---3----|
E|-------------------------------------------------------------|

FM7  Dm   (x2)

[Chorus]
               Am                 FM7               C
Enkä väsy katsomaa - a - aa - a - aa - a - aa - a - aan
    G                       Am                FM7           C
Kun linnut lentää matalaa - aa - a - aa - a - aa - a - aa - aan
                             Am                FM7               C
Autoletkaa vastaan tulevaa - aa - a - aa - a - aa - a - aa - a - aa

    G                  FM7                                Dm
e|------------------------------------------------------------------------------|
B|------------------------------------------------------------------------------|
G|------------------------------------------------------------------------------|
D|------------------------------------------------------------------------------|
A|--------8----7---5----3--------------------8----7---5---3---------------------|
E|------------------------------------------------------------------------------|
            Jos vastaan kadulla kulkisit       menneistä  mitä sä muistaisit

                       FM7                                Dm                           Am
                                                                                       ^
e|-------------------------------------------------------------------------------------0---|
B|-------------------------------------------------------------------------------------1---|
G|-------------------------------------------------------------------------------------2---|
D|-------------------------------------------------------------------------------------2---|
A|--------8----7---5----3--------------------8----7---5---3----------------------------0---|
E|-----------------------------------------------------------------------------------------|
                                                                                       ^
            Jos vastaan kadulla kulkisit       menneistä  mitä sä muistaisit, tuntisit

            
            
Suggest correction
Creating personal tab
Creating personal tab
You can edit any tab online and save it as your Personal.

You can edit, replace or remove any tab part or add personal notes – all changes will be seen only by you.

Personal tabs can be accessed anytime from any device, even offline.
Learn more »
Give kudos to tab author, rate the tab!
1 2 3 4 5
comments
print report bad tab
guest
You may want to rate the tab now too:
select rating
Wanna post a correction for this tab? Suggest correction