Oops, an error
Loading. Please wait.

Mir Wär Lieber Du Weinst bass

163 views 1 this week
no commentswrite comment
1 2 3 4 5
3 more votes to show rating
add to favorites
×
Save as Personal and add changes to this tab that will be seen only by you. Learn more ›
×
You can save this tab as Personal to edit and correct it or add notes. All changes will be seen only by you. Learn more »
launch autoscroll
font size
0
reset
guitar tuner
edit
Autoscroll
slow
fast
+/-
esc
set tempo
stop
Author
Difficulty
About this tab version
Based on the album version. Was this info helpful? Yes No
Tuning: Standard

[Intro]

G|---------------------------------|
D|-(Einzähl-Beat)------------------|
A|---------------------------------|
E|---------------------------------|

G|---------------------------------|---------------------------------|
D|-(Gitarre setzt ein)-------------|---------------------------------|
A|---------------------------------|---------------------------------|
E|---------------------------------|---------------------------------|


[Verse 1]

G|---------------------------------|---------------------------------|
D|---------------------------------|---------------------------------|
A|---------------------------------|---------------------------------|
E|---------------------------------|---------------------------------|

G|---------------------------------|---------------------------------|
D|---------------------------------|---------------------------------|
A|---------------------------------|---------------------------------|
E|---------------------------------|---------------------------------|

G|---------------------------------|---------------------------------|
D|---------------------------------|---------------------------------|
A|-7---------------5---------------|-3-------------------3---5---5---|
E|---------7---------------5-------|---------------------------------|

G|---------------------------------|---------------------------------|
D|---------------------------------|---------------------------------|
A|-----------------2---------------|---------------------------------|
E|-3-------------------------------|-0-------------------------------|


[Interlude]

G|---------------------------------|---------------------------------|
D|---------------------------------|---------------------------------|
A|-7---------------5---------------|-3-----------------------5-------|
E|---------7---------------5-------|---------------------------------|

G|---------------------------------|---------------------------------|
D|---------------------------------|---------------------------------|
A|-7---------------5---------------|-3-----------------------5-------|
E|---------7---------------5-------|---------------------------------|

G|---------------------------------|---------------------------------|
D|---------------------------------|---------------------------------|
A|-7---------------5---------------|-3-------------------3---5---5---|
E|---------7---------------5-------|---------------------------------|

G|---------------------------------|---------------------------------|
D|---------------------------------|---------------------------------|
A|-----------------2---------------|---------------------------------|
E|-3-------------------------------|-0-------------------------------|


[Pre-Chorus]

G|---------------------------------|---------------------------------|
D|---------------------------------|---------------------------------|
A|---------------------------------|---------------------------------|
E|-0---0---------------2-----2-----|-3---3---------------5-----5-----|

G|---------------------------------|---------------------------------|
D|---------------------------------|---------------------------------|
A|---------------------------------|---------------------------------|
E|-3---3---------------2-----2-----|-3---3---------------7-----7-----|

G|---------------------------------|---------------------------------|
D|---------------------------------|---------------------------------|
A|---------------------------------|---------------------------------|
E|-0---0---------------2-----2-----|-3---3---------------5-----5-----|

G|---------------------------------|---------------------------------|
D|---------------------------------|---------------------------------|
A|---------------------------------|---------------------------------|
E|-3---3---------------2-----2-----|-3---3---------------7-----7-----|

G|---------------------------------|---------------------------------|
D|---------------------------------|---------------------------------|
A|---------------------------------|---------------------------------|
E|-0---0---0-------2---2---2-------|-3---3---3-------5---5---5-------|

G|---------------------------------|---------------------------------|
D|---------------------------------|---------------------------------|
A|---------------------------------|---------------------------------|
E|-3---3---3-------2---2---2-------|-3---3---3-------7---7---7-------|

G|---------------------------------|---------------------------------|
D|---------------------------------|---------------------------------|
A|---------------------------------|---------------------------------|
E|-0---0---0---0---2---2---2---2---|-3---3---3---3---5---5---5---5---|

G|---------------------------------|---------------------------------|
D|---------------------------------|---------------------------------|
A|---------------------------------|---------------------------------|
E|-8---8---8---8---8---8---8---8---|-7---5---3---2---0---------------|


[Chorus]

G|---------------------------------|---------------------------------|
D|---------------------------------|---------------------------------|
A|-7---------------5---------------|-3-----------------------5-------|
E|---------7---------------5-------|---------------------------------|

G|---------------------------------|---------------------------------|
D|---------------------------------|---------------------------------|
A|-7---------------5---------------|-3-----------------------5-------|
E|---------7---------------5-------|---------------------------------|

G|---------------------------------|---------------------------------|
D|---------------------------------|---------------------------------|
A|-7---------------5---------------|-3-------------------3---5---5---|
E|---------7---------------5-------|---------------------------------|

G|---------------------------------|---------------------------------|
D|---------------------------------|---------------------------------|
A|-----------------2---------------|---------------------------------|
E|-3-------------------------------|-0-------------------------------|


[Interlude]

G|---------------------------------|---------------------------------|
D|---------------------------------|---------------------------------|
A|-7---------------5---------------|-3-----------------------5-------|
E|---------7---------------5-------|---------------------------------|

G|---------------------------------|---------------------------------|
D|---------------------------------|---------------------------------|
A|-7---------------5---------------|-3-----------------------5-------|
E|---------7---------------5-------|---------------------------------|

G|---------------------------------|---------------------------------|
D|---------------------------------|---------------------------------|
A|-7---------------5---------------|-3-------------------3---5---5---|
E|---------7---------------5-------|---------------------------------|

G|---------------------------------|---------------------------------|
D|---------------------------------|---------------------------------|
A|-----------------2---------------|---------------------------------|
E|-3-------------------------------|-0-------0---0---0---0---0---0---|


[Pre-Chorus]

G|---------------------------------|---------------------------------|
D|---------------------------------|---------------------------------|
A|---------------------------------|---------------------------------|
E|-0---0---------------2-----2-----|-3---3---------------5-----5-----|

G|---------------------------------|---------------------------------|
D|---------------------------------|---------------------------------|
A|---------------------------------|---------------------------------|
E|-3---3---------------2-----2-----|-3---3---------------7-----7-----|

G|---------------------------------|---------------------------------|
D|---------------------------------|---------------------------------|
A|---------------------------------|---------------------------------|
E|-0---0---------------2-----2-----|-3---3---------------5-----5-----|

G|---------------------------------|---------------------------------|
D|---------------------------------|---------------------------------|
A|---------------------------------|---------------------------------|
E|-3---3---------------2-----2-----|-3---3---------------7-----7-----|

G|---------------------------------|---------------------------------|
D|---------------------------------|---------------------------------|
A|---------------------------------|---------------------------------|
E|-0---0---0-------2---2---2-------|-3---3---3-------5---5---5-------|

G|---------------------------------|---------------------------------|
D|---------------------------------|---------------------------------|
A|---------------------------------|---------------------------------|
E|-3---3---3-------2---2---2-------|-3---3---3-------7---7---7-------|

G|---------------------------------|---------------------------------|
D|---------------------------------|---------------------------------|
A|---------------------------------|---------------------------------|
E|-0---0---0---0---2---2---2---2---|-3---3---3---3---5---5---5---5---|

G|---------------------------------|---------------------------------|
D|---------------------------------|---------------------------------|
A|---------------------------------|---------------------------------|
E|-8---8---8---8---8---8---8---8---|-7---5---3---2---0---------------|


[Chorus]

G|---------------------------------|---------------------------------|
D|---------------------------------|---------------------------------|
A|-7---------------5---------------|-3-----------------------5-------|
E|---------7---------------5-------|---------------------------------|

G|---------------------------------|---------------------------------|
D|---------------------------------|---------------------------------|
A|-7---------------5---------------|-3-----------------------5-------|
E|---------7---------------5-------|---------------------------------|

G|---------------------------------|---------------------------------|
D|---------------------------------|---------------------------------|
A|-7---------------5---------------|-3-------------------3---5---5---|
E|---------7---------------5-------|---------------------------------|

G|---------------------------------|---------------------------------|
D|---------------------------------|---------------------------------|
A|-----------------2---------------|---------------------------------|
E|-3-------------------------------|-0-------------------------------|

G|---------------------------------|---------------------------------|
D|---------------------------------|---------------------------------|
A|-7---------------5---------------|-3-----------------------5-------|
E|---------7---------------5-------|---------------------------------|

G|---------------------------------|---------------------------------|
D|---------------------------------|---------------------------------|
A|-7---------------5---------------|-3-----------------------5-------|
E|---------7---------------5-------|---------------------------------|

G|---------------------------------|---------------------------------|
D|---------------------------------|---------------------------------|
A|-7---------------5---------------|-3-------------------3---5---5---|
E|---------7---------------5-------|---------------------------------|

G|---------------------------------|---------------------------------|
D|---------------------------------|---------------------------------|
A|-----------------2---------------|---------------------------------|
E|-3-------------------------------|-0-------------------------------|


[Outro]

G|---------------------------------|---------------------------------|
D|---------------------------------|---------------------------------|
A|---------------------------------|---------------------------------|
E|---------------------------------|---------------------------------|

            
            
Suggest correction
Creating personal tab
Creating personal tab
You can edit any tab online and save it as your Personal.

You can edit, replace or remove any tab part or add personal notes – all changes will be seen only by you.

Personal tabs can be accessed anytime from any device, even offline.
Learn more »
Give kudos to tab author, rate the tab!
1 2 3 4 5
comments
print report bad tab
guest
You may want to rate the tab now too:
select rating
Wanna post a correction for this tab? Suggest correction