Oops, an error
Loading. Please wait.

Maiden Live tab

version 1
version 1

Whole song

by
163 views 3 this week
no commentswrite comment
1 2 3 4 5
3 more votes to show rating
add to favorites
×
Save as Personal and add changes to this tab that will be seen only by you. Learn more ›
×
You can save this tab as Personal to edit and correct it or add notes. All changes will be seen only by you. Learn more »
launch autoscroll
font size
0
reset
how to read this tab
guitar tuner
edit
Autoscroll
slow
fast
+/-
esc
set tempo
stop
Author
Difficulty
Artist: MØ
Song: Maiden - Live


[Intro]

e|--13-14-----------------------------------|---------------------------------------|
B|--------16-14-13--------------------------|---------------------------------------|
G|------------------15-13----------13-15----|-15-13---------------------------------| (X4)
D|------------------------15-13-15-------15-|-------15-13----------------13-15------|
A|------------------------------------------|-------------16-13----13-16-------13---|
E|------------------------------------------|-------------------16------------------|

e|-------------------------------|
B|-------------------------------|
G|-15-15-15-15-15-15-15-15/------|
D|-------------------------------|
A|-------------------------------|
E|-------------------------------|


[Verse]
N.C
My desire is ravaging in me
N.C
I see purple mass, stardust light
N.C
Dancing in your eyes

e|---------------------------|-----------------------|
B|---------------------------|-----------------------|
G|---------------------------|-----------------------|  (X4)
D|--8-8--8-x-8-8-8-x-6-8-8---|--8-x-8-8-8-x-6-8-8----|
A|---------------------------|-----------------------|
E|---------------------------|-----------------------|
 What is the use? Where can I start?
 
 When all of you find me crazy
 
 Cause I have a black heart

e|-------------------------------|
B|-------------------------------|
G|-15-15-15-15-15-15-15-15/------|
D|-------------------------------|
A|-------------------------------|
E|-------------------------------|



[Chorus]

Fill*
e|--6/---|
B|-------|
G|-------|
D|-------|
A|-------|
E|-------|
                     Fill                 Fill
So what you know about being the best one?
             Fill                Fill
I will never see...
                  Fill            Fill
And what they said about me from time to time
     Fill
Will never be true


e|-------------------------------|
B|-------------------------------|
G|-15-15-15-15-15-15-15-15/------|
D|-------------------------------|
A|-------------------------------|
E|-------------------------------|

e|--13-14-----------------------------------|---------------------------------------|
B|--------16-14-13--------------------------|---------------------------------------|
G|------------------15-13----------13-15----|-15-13---------------------------------| (X4)
D|------------------------15-13-15-------15-|-------15-13----------------13-15------|
A|------------------------------------------|-------------16-13----13-16-------13---|
E|------------------------------------------|-------------------16------------------|
                                                       ...Never more

Verse:

N.C
My desire is ravaging in me
N.C
Like a warrior’s blade, proud and fine
N.C
Let victory be mine

e|---------------------------|-----------------------|
B|---------------------------|-----------------------|
G|---------------------------|-----------------------|  (X4)
D|--8-8--8-x-8-8-8-x-6-8-8---|--8-x-8-8-8-x-6-8-8----|
A|---------------------------|-----------------------|
E|---------------------------|-----------------------|

What if I choose to tear down the wall?

And take you in my arms, sweet sunbeam

Though I’m not perfect at all

e|-------------------------------|
B|-------------------------------|
G|-15-15-15-15-15-15-15-15/------|
D|-------------------------------|
A|-------------------------------|
E|-------------------------------|

[Chorus]

Fill*
e|-18/---|
B|-------|
G|-------|
D|-------|
A|-------|
E|-------|
                     Fill                 Fill
So what you know about being the best one?
             Fill                Fill
I will never see...
                  Fill            Fill
And what they said about me from time to time
     Fill
Will never be true


e|-------------------------------|
B|-------------------------------|
G|-15-15-15-15-15-15-15-15/------|
D|-------------------------------|
A|-------------------------------|
E|-------------------------------|

e|--13-14-----------------------------------|---------------------------------------|
B|--------16-14-13--------------------------|---------------------------------------|
G|------------------15-13----------13-15----|-15-13---------------------------------| (X4)
D|------------------------15-13-15-------15-|-------15-13----------------13-15------|
A|------------------------------------------|-------------16-13----13-16-------13---|
E|------------------------------------------|-------------------16------------------|
                                                       ...Never more

e|--13-14-----------------------------------|---------------------------------------|
B|--------16-14-13--------------------------|---------------------------------------|
G|------------------15-13----------13-15----|-15-13---------------------------------|
D|------------------------15-13-15-------15-|-------15-13----------------13-15------|
A|------------------------------------------|-------------16-13----13-16-------13---|
E|------------------------------------------|-------------------16------------------|
            I'm a maiden.. for you

e|-------------------------------|
B|-------------------------------|
G|-15-15-15-15-15-15-15-15/------|
D|-------------------------------|
A|-------------------------------|
E|-------------------------------|

e|--13-14-----------------------------------|---------------------------------------|
B|--------16-14-13--------------------------|---------------------------------------|
G|------------------15-13----------13-15----|-15-13---------------------------------| (X4)
D|------------------------15-13-15-------15-|-------15-13----------------13-15------|
A|------------------------------------------|-------------16-13----13-16-------13---|
E|------------------------------------------|-------------------16------------------|
      I'm a maiden..                                  ... Nevermore

e|--13-14-----------------------------------|---------------------------------------|
B|--------16-14-13--------------------------|---------------------------------------|
G|------------------15-13----------13-15----|-15-13---------------------------------|
D|------------------------15-13-15-------15-|-------15-13----------------13-15------|
A|------------------------------------------|-------------16-13----13-16-------13---|
E|------------------------------------------|-------------------16------------------|
            I'm a maiden.. for you


e|-------------------------------|
B|-------------------------------|
G|-15-15-15-15-15-15-15-15/------| (x3)
D|-------------------------------|
A|-------------------------------|
E|-------------------------------|


            
            
Suggest correction
Creating personal tab
Creating personal tab
You can edit any tab online and save it as your Personal.

You can edit, replace or remove any tab part or add personal notes – all changes will be seen only by you.

Personal tabs can be accessed anytime from any device, even offline.
Learn more »
Give kudos to tab author, rate the tab!
1 2 3 4 5
comments
print report bad tab
guest
You may want to rate the tab now too:
select rating
Wanna post a correction for this tab? Suggest correction