Oops, an error
Loading. Please wait.

The Rain 더 레인 chords

232 views 6 this week
no commentswrite comment
1 2 3 4 5
1 last vote to show rating
add to favorites
×
Save as Personal and add changes to this tab that will be seen only by you. Learn more ›
×
You can save this tab as Personal to edit and correct it or add notes. All changes will be seen only by you. Learn more »
launch autoscroll
font size
0
reset
transpose
0
reset
simplify chords
display chords
guitar tuner
edit
Autoscroll
slow
fast
+/-
esc
set tempo
stop
About this tab version
In the "Outro" part, you could play the tab or the chords. Was this info helpful? Yes No
Strumming
There is no strumming pattern for this song yet. and get +5 IQ
[Intro]
A G# C#m F#
A G# C#m

[Verse 1]
A        G#                      C#m F#
biga geuchinji myeot bari jinasseume-do
A        G#                     C#m   F#
naneun ajikdo ireohge jeojeoisseoyo

[Verse 2]
A                       G#
chueogiraneun yateun sigan soge
   C#m                      F#
yeojeonhi naerineun ibyeorui bineun
A
nareul da jibeo samkyeo
   G#
du nun wiro gadeuk maejhyeo
      G                   F#
kkeuteobsi sodajyeo naeryeo

[Chorus]
         C#m
teojineun bitbangure nolla
           E
geudaeneun bireul pihajyo
         A                       F#  G#
oemyeonhaji ma You cause the rain~
          C#m
nae mameul moreun cheok
                      E
geudaen nae nunmureul chagapge pihajyo
                A
Don’t Break my heart, oh
          F# G#
deureojwo My rain drops

[Instrumental]
E|----------------------------------------------------------------|
B|--------------------------------------------------------15-14---|
E|----------------------------------------------------------------|
D|-14-13--13-11--11-13-14-16-17-14--14-13--13-11--11/13/14--------|
A|----------------------------------------------------------------|
E|----------------------------------------------------------------|

E|---------------------------------------------------------|
B|---------------------------------------------------------|
E|---------------------------------------------------------|
D|-14-13--13-11--11-13-14-16-17-14--14-13------------------|
A|---------------------------------------------------------|
E|---------------------------------------------------------|

A G# C#m E
A G#

C#m            E
Hear the rain
A G#  C#m    E         A G#
nana nana nananananana nana

[Verse 3]
    A    G#                      C#m F#
haega gureume garyeojyeo isseosseume-do
       A
achimi oneun geotcheoreom
   G#                    C#m  F#
uimi eomneun gidaeppunin geoya

[Verse 4]
    A                        G#
dan harudo beotil su eobseul mankeum
        C#m                 F#
teok mitkkaji gadeuk goin i bineun
A
deoneun chameul su eobsi
  G#
ipsul teumsaereul bijipgo
        G              F#
kkeuteobsi sodajyeo naeryeo

[Chorus]
         C#m
teojineun bitbangure nolla
           E
geudaeneun bireul pihajyo
         A                       F#  G#
oemyeonhaji ma You cause the rain~
          C#m
nae mameul moreun cheok
                      E
geudaen nae nunmureul chagapge pihajyo
                A
Don’t Break my heart, oh
          F# G#
deureojwo My rain drops

[Bridge]
A7M         G#m7         F#m7
gojangi nan deut han haneul
F#m7                          Dm
haessareun ajik meon geot gata
Dm
oneul i bie nae nunmul deohae
                           Ebm Em
geudael jom deo butjapgo sipeo

[Chorus]
       C#m      
ajikdo moreun cheok
                      E
gogaereul dollineun geudaeui siseon
        A                       F# G#
dasi han beon tto naerineun Rain~
      C#m
apado musimko pieonan
           E
nae mameul jareul suga eobseo
                A
Don’t Break my heart, oh
           F# G#
naeryeojwo My rain drops, No~ 
C#m 
E                              A
Hear the rain, Hear the rain oh oh
         F# G#
Wo woo yeah Cause the rain

[Outro]
E|----------------------------------------------------------------|
B|--------------------------------------------------------15-14---|
E|----------------------------------------------------------------|
D|-14-13--13-11--11-13-14-16-17-14--14-13--13-11--11/13/14--------|
A|----------------------------------------------------------------|
E|----------------------------------------------------------------|

E|---------------------------------------------------------|
B|---------------------------------------------------------|
E|---------------------------------------------------------|
D|-14-13--13-11--11-13-14-16-17-14--14-13------------------|
A|---------------------------------------------------------|
E|---------------------------------------------------------|

A G# C#m E
A G#

C#m            E
Hear the rain
A G#  C#m    E         A G#
nana nana nananananana nana

            
            
Suggest correction
Creating personal tab
Creating personal tab
You can edit any tab online and save it as your Personal.

You can edit, replace or remove any tab part or add personal notes – all changes will be seen only by you.

Personal tabs can be accessed anytime from any device, even offline.
Learn more »
Give kudos to tab author, rate the tab!
1 2 3 4 5
comments
print report bad tab
guest
You may want to rate the tab now too:
select rating
Wanna post a correction for this tab? Suggest correction