Oops, an error
Loading. Please wait.

Djakninn intro tab

version 1
version 1

Intro

  • This version sounds quite accurate to me. Do not h... Show more

Whole song

460 views 12 this week
no commentswrite comment
1 2 3 4 5
2 more votes to show rating
add to favorites
×
Save as Personal and add changes to this tab that will be seen only by you. Learn more ›
×
You can save this tab as Personal to edit and correct it or add notes. All changes will be seen only by you. Learn more »
launch autoscroll
font size
0
reset
how to read this tab
guitar tuner
edit
Autoscroll
slow
fast
+/-
esc
set tempo
stop
About this tab version
This version sounds quite accurate to me. Do not hesitate to comment or complete this tabs. Was this info helpful? Yes No
[Intro]

Solstafir Djakninn

Tune down DGCFAD

Intro
|----------------------------------------------------------
|-----5----3---5p-3-----------------1---1--0-------------
|--5----5-------------5~----------2---2-------2----------      X4
|-------------------------------------------------0h2----
|0~-------------------------------------------------------
|-------------------------------1~------------------------


|----------------------------------------------------------------------------------------     
|---------------------------------------------------------------------------------------- 
|-----5/7--5~------------5--5--4-------------------2~------------------1h2p1-------------
|-----5/7--5~------------5--5-----5~------------3------------------2---------2~-------
|0~--------------------------------------------------------------------------------------
|---------------------3~--------------------0-1~-----------------0~--------------------


|-------------------------------------------------------------------------------------------   
|-------------------------------------------------------------------------------------------                
|-----5/7-7/9--7/5-5/7--5~-----5--5--4----------------2~-----------1h2-2/4-4^---------------                
|-----5/7-7/9--7/5-5/7--5~-----5--5----5~----------3-------------2--------------------------               
|0~-----------------------------------------------------------------------------------------                 
|----------------------------3~----------------0-1~-----------0~----------------------------

Punch:|---------
      |111------
      |222---111
      |222---222
      |000---222
      |------000
              

Verse

Chords:

|0--------3----------1--------------------| You can also play these as power chords.
|1--------0----------1----------1---------|
|2--------0----------2----------2-------1-|
|2--------0----------3----------2-------2-|
|0--------2----------3----------0-------2-|
|---------3----------1------------------0-| 

Vocal melody (approx.)

|-------------------------------------------------------------------------------------------------------------
|-------------------------------------------------------------------------------------------------------------
|----2-0-2-0-2-0---0~----------------------------------------------------------------------------------------
|----------------2---------------2-0-2--0-2--5-2~-------0---0---0------------------2-0-2--0—2/5--2~--------
|0~-------------------------------------------------------3---3---3--0-3~----------------------------------
|------------------------------3~---------------------1~------------------------0~------------------------










            
            
Suggest correction
Creating personal tab
Creating personal tab
You can edit any tab online and save it as your Personal.

You can edit, replace or remove any tab part or add personal notes – all changes will be seen only by you.

Personal tabs can be accessed anytime from any device, even offline.
Learn more »
Give kudos to tab author, rate the tab!
1 2 3 4 5
comments
print report bad tab
guest
Wanna post a correction for this tab? Suggest correction