Oops, an error
Loading. Please wait.

Gi Meg Jesus tab

version 1
version 1

Whole song

91 views 3 this week
no commentswrite comment
1 2 3 4 5
3 more votes to show rating
add to favorites
×
Save as Personal and add changes to this tab that will be seen only by you. Learn more ›
×
You can save this tab as Personal to edit and correct it or add notes. All changes will be seen only by you. Learn more »
launch autoscroll
font size
0
reset
how to read this tab
guitar tuner
edit
Autoscroll
slow
fast
+/-
esc
set tempo
stop
Author
Difficulty
The tab is in the key of G, the same key David Andre Øystby play it in.

[Intro]

For a couple of seconds right before the guitar start to play the intro, a pad, probably 
in the key of G, is
heard on the record. The pad continues through the whole song.

E|-------------------------------------------------------|
A|-------------------------------------------------------|
D|-------------------------------------------------------|
G|12-14-16-16-12-14-16-16-12--12-14-16-16-12-14-------12-|
B|----------------------------------------------15-15----|
E|-------------------------------------------------------|
x7

[Verse]

At the verse the guitar plays the bass line an octave higher.

[Chorus 1]
This section doesn't start until halfway through the verse.

E|--------------------------------------------------------------------------|
A|--------------------------------------------------------------------------|
D|--------------------------------------------------------------------------|
G|12-14-12---12-14-12------11-12-11----11-12-11-----12-14-12----12-14-12----|
B|--------15----------15------------15---------15------------17----------15-|
E|--------------------------------------------------------------------------|

[Interlude]
The interlude between the first chrous and he second verse is the intro played once.

[Verse 2]

The bass line an octave higher

[Chorus 2]
E|---------------------------------------------------------------------------------------------------------|
A|---------------------------------------------------------------------------------------------------------|
D|---------------------------------------------------------------------------------------------------------|
G|12-14-12--12-14-12--12-14--11-12-11--11-12-11--11-12--12-14-12--12-14-12--12-14--12-14--11-12-11--11-12--|
B|--------15--------15---------------15--------15---------------17--------17------------15--------15-------|
E|---------------------------------------------------------------------------------------------------------|

E|---------------------------------------------------------------------------|
A|---------------------------------------------------------------------------|
D|---------------------------------------------------------------------------|
G|12-14-12--12-14-12--12-14--11-12-11--11-12-11--11-12--12-14-12--12-14-12---|
B|--------15--------15---------------15--------15---------------17--------17-|
E|---------------------------------------------------------------------------|

[Solo]

E|-----------------------------------------------------------------------------|
A|-----------------------------------------------------------------------------|
D|-----------------------------------------------------------------------------|
G|14-16-14--14-16-14----14-16-14--14-16-14----14-16-14--14-16-14----14-16-16---|
B|--------17--------17----------20--------20----------19--------19-------------|
E|--------------------------------------------------------------------------17-|
x2

[Bridge]
The solo is played during the whole bridge.
E|-----------------------------------------------------------------------------|
A|-----------------------------------------------------------------------------|
D|-----------------------------------------------------------------------------|
G|14-16-14--14-16-14----14-16-14--14-16-14----14-16-14--14-16-14----14-16-16---|
B|--------17--------17----------20--------20----------19--------19-------------|
E|--------------------------------------------------------------------------17-|
x4

[Chorus 3]
After the bridge they go back to the chorus. Just like at the first chorus, the guitar 
doesn't start playing
until halway trough the chorus. But because they don't sing the last line ''Ingen andre er lik deg Jesus'',
you don't play the entire 1. chorus tab.

E|------------------------------------------------|
A|------------------------------------------------|
D|------------------------------------------------|
G|12-14-12---12-14-12------11-12-11----11-12-11---|
B|--------15----------15------------15---------15-|
E|------------------------------------------------|

[Chorus 4]
4. Chorus is almost the same as the 2. chorus, but because you're going to the intro 
atferwards, you land on
the 15. freet of the B string, not the 17.

[Outro] x5 
E|-------------------------------------------------------|
A|-------------------------------------------------------|
D|-------------------------------------------------------|
G|12-14-16-16-12-14-16-16-12--12-14-16-16-12-14-------12-|
B|----------------------------------------------15-15----|
E|-------------------------------------------------------|

            
            
Suggest correction
Creating personal tab
Creating personal tab
You can edit any tab online and save it as your Personal.

You can edit, replace or remove any tab part or add personal notes – all changes will be seen only by you.

Personal tabs can be accessed anytime from any device, even offline.
Learn more »
Give kudos to tab author, rate the tab!
1 2 3 4 5
comments
print report bad tab
guest
You may want to rate the tab now too:
select rating
Wanna post a correction for this tab? Suggest correction