Oops, an error
Loading. Please wait.

Dos Días tab

28 views 3 this week
no commentswrite comment
1 2 3 4 5
2 more votes to show rating
add to favorites
×
Save as Personal and add changes to this tab that will be seen only by you. Learn more ›
×
You can save this tab as Personal to edit and correct it or add notes. All changes will be seen only by you. Learn more »
launch autoscroll
font size
0
reset
how to read this tab
guitar tuner
edit
Autoscroll
slow
fast
+/-
esc
set tempo
stop
Author
Difficulty
About this tab version
Full tab of Dos Dias for guitar. Some leads are done on a Requinto (guitar tuned up to A standard) but I tabbed them for guitar. Was this info helpful? Yes No
El Andariego - Dos Dias
Standard Tuning
tabbed by jjhand

I'll list the chords and some major parts afterward

[Intro]

8 measures - each chord is 2 beats, unless the chord is played for 4 beats
 
Em   B7   Em   D
G    E7   Am
Am        Em
B7        Em   B7


Intro Lead part, with pick-up notes. this is normally played on a Requinto:

e|---------8---|-7-7-7-7-7----------------------------|-8-------7----------10--9--8-|
B|-12--10--10--|-8-8-8-8-8---8---10-10-10-10-10-------|-10------8----------12-11-10-|
G|-12--11------|-------------9---11-11-11-11-11---8---|-----------------------------|
D|-------------|--------------------------------------|-----------------------------|
A|-------------|--------------------------------------|-----------------------------|
E|-------------|--------------------------------------|-----------------------------|

e|-7-7-7-7-7---7---7---13---12--------|---------------------------------------|
B|-8-8-8-8-8---8---9/--12---12---15---|-13-13-13-13-13-13-13--------------12--|
G|---------------------13---13---13---|-14-14-14-14-14-14-14-----------11-12--|
D|------------------------------------|---------------------------------------|
A|------------------------------------|---------------------------------------|
E|------------------------------------|---------------------------------------|

e|------------------------------12---12---11---|-12----------------------------|
B|-13-12----12-13-12----12-13---12---13---12---|-12h13---12-----------------12-|
G|-14-12-11-12-14-12-11-12-14------------------|---------12-------------12--12-|
D|---------------------------------------------|--------------------14--14-----|
A|---------------------------------------------|--------------------14---------|
E|---------------------------------------------|-------------------------------|

e|-15------14--12--14--14--12--11--|-12------------12-11---------------------|---------------12---|
B|---------------------------------|------------12-13-12---13---12-13-12-10--|-8----------12------|
G|-16------14--12--14--14--12--11--|-12--------------------14---12-14-12-11--|-9-------12---------|
D|---------------------------------|-----------------------------------------|------14------------|
A|---------------------------------|-----------------------------------------|--------------------|
E|---------------------------------|-----------------------------------------|--------------------|



[Verse Part 1]

Em                  B7
Si no tienes nada nadie viene a darte 
Em                B7
y si tienes mucho te han de idolatrar 
     D                      G
es la hipocresia del mundo implacable 
       D                      G
la bil injusticia de la humanidad 
                B7                 Em
sin mirar que muertos quedamos iguales 
                   B7              Em
por que aun mismo sitio vamos a parar 


** Verse Lead Break 1
e|-----------------12-11---14---11------|-----------------------------------|
B|-12-12-12---12---------------------12-|-13---12---10---8--------12-13-12--|
G|-9--9--9----9----12-11---14---11------|-14---12---11---9--------12-14-12--|
D|--------------------------------------|-----------------------------------|
A|--------------------------------------|-----------------------------------|
E|--------------------------------------|-----------------------------------|



[Verse Part 2]

Em              B7                 Em
por eso en mi caso yo vivo el momento 
              B7                  Em
disfruto la noche y el dia que se va 
               D                     G
limpio vine al mundo y limpio me marcho 
             D               G
solo lo que goze me voy a llevar 
                    B7          Em
no llevo dinero ni amores ni encantos 
                  B7                Em
si algun dia la muerte me viene a buscar 


** Verse Lead Break 2
e|-----12--11--------------------|-----12--11--12--14--11--12------|
B|-12--13--12-----10--13--12-----|-12--------------------------12--|
G|-12-------------11--14--12-----|-9---12--11--12--14--11--12--9---|
D|-------------------------------|---------------------------------|
A|-------------------------------|---------------------------------|
E|-------------------------------|---------------------------------|

e|-------------------------------|
B|-10---9--8---------------------|
G|-11--10--9---------------------|
D|-------------------------------|
A|-------------------------------|
E|-------------------------------|



[Chorus]

Em       B7               Em
se que tengo seguros dos dias 
         B7               Em
es la triste y la cruel realidad 
    D                         G
el primer dia cuando vine al mundo y 
       D                   G
el segundo cuando he de marchar 
         B7               Em
para siempre en un sueño profundo 
       B7               Em
donde dios me lleve a descansar 
  B7                   Em
familiares, amores y amigos 
       B7               Em
en la tumba me van a olvidar 



[Intro Repeat]
e|---------8---|-7-7-7-7-7----------------------------|-8-------7----------10--9--8-|
B|-12--10--10--|-8-8-8-8-8---8---10-10-10-10-10-------|-10------8----------12-11-10-|
G|-12--11------|-------------9---11-11-11-11-11---8---|-----------------------------|
D|-------------|--------------------------------------|-----------------------------|
A|-------------|--------------------------------------|-----------------------------|
E|-------------|--------------------------------------|-----------------------------|

e|-7-7-7-7-7---7---7---13---12--------|---------------------------------------|
B|-8-8-8-8-8---8---9/--12---12---15---|-13-13-13-13-13-13-13--------------12--|
G|---------------------13---13---13---|-14-14-14-14-14-14-14-----------11-12--|
D|------------------------------------|---------------------------------------|
A|------------------------------------|---------------------------------------|
E|------------------------------------|---------------------------------------|

e|------------------------------12---12---11---|-12-------7--------------------|
B|-13-12----12-13-12----12-13---12---13---12---|-12h13----8-----------------12-|
G|-14-12-11-12-14-12-11-12-14------------------|------------------------12--12-|
D|---------------------------------------------|------------------------14-----|
A|---------------------------------------------|-------------------------------|
E|---------------------------------------------|-------------------------------|

e|-15------14--12--14--14--12--11--|-12------------12-11---------------------|---------------12---|
B|---------------------------------|------------12-13-12---13---12-13-12-10--|-8----------12------|
G|-16------14--12--14--14--12--11--|-12--------------------14---12-14-12-11--|-9-------12---------|
D|---------------------------------|-----------------------------------------|------14------------|
A|---------------------------------|-----------------------------------------|--------------------|
E|---------------------------------|-----------------------------------------|--------------------|


[Verse 2]

Em              B7                 Em
por eso en mi caso yo vivo el momento 
              B7                  Em
disfruto la noche y el dia que se va 
               D                     G
limpio vine al mundo y limpio me marcho 
             D               G
solo lo que goze me voy a llevar 
                    B7          Em
no llevo dinero ni amores ni encantos 
                  B7                Em
si algun dia la muerte me viene a buscar


** Lead before last chorus
e|------------12---11-11-11-11-11---12--|-14---12---11--14--12-----15--14--12----|
B|-------12-----------------------------|----------------------------------------|
G|-------9----12---11-11-11-11-11---12--|-14---12---11--14--12-----16--14--12----|
D|--------------------------------------|----------------------------------------|
A|--------------------------------------|----------------------------------------|
E|--------------------------------------|----------------------------------------|



[Chorus 2]

Em       B7               Em
se que tengo seguros dos dias 
         B7               Em
es la triste y la cruel realidad 
    D                         G
el primer dia cuando vine al mundo y 
       D                   G
el segundo cuando he de marchar 
         B7               Em
para siempre en un sueño profundo 
       B7               Em
donde dios me lleve a descansar 
  B7                   Em
familiares, amores y amigos 
       B7               Em
en la tumba me van a olvidar 



[Outro]

e|---------------|-7-7-7-7-7/---12---11---12---14---11---12--------------------|
B|-----------8---|-8-8-8-8-8/---12---------------------------12---10---9---8---|
G|-------7---7---|-------------------11---12---14---11---12---9---11--10---9---|
D|---9---9-------|-------------------------------------------------------------|
A|--10-----------|-------------------------------------------------------------|
E|---------------|-------------------------------------------------------------|


************************************
Key
| h   Hammer-on
| /   Slide up
| \   Slide down

************************************

            
            
Suggest correction
Creating personal tab
Creating personal tab
You can edit any tab online and save it as your Personal.

You can edit, replace or remove any tab part or add personal notes – all changes will be seen only by you.

Personal tabs can be accessed anytime from any device, even offline.
Learn more »
Give kudos to tab author, rate the tab!
1 2 3 4 5
comments
print report bad tab
guest
You may want to rate the tab now too:
select rating
Wanna post a correction for this tab? Suggest correction