Oops, an error
Loading. Please wait.

Červená Armáda chords

by Zona A
43 views 1 this week
no commentswrite comment
1 2 3 4 5
3 more votes to show rating
add to favorites
×
Save as Personal and add changes to this tab that will be seen only by you. Learn more ›
×
You can save this tab as Personal to edit and correct it or add notes. All changes will be seen only by you. Learn more »
launch autoscroll
font size
0
reset
transpose
0
reset
display chords
guitar tuner
edit
Autoscroll
slow
fast
+/-
esc
set tempo
stop
Author
Difficulty
Strumming
There is no strumming pattern for this song yet. and get +5 IQ
[Verse 1]
C               F
Dnes sa vidíme naposledy
C              G
Máme v očiach slzy
C             F
Sme spolu už veľa liet
G                C
Tak ma to teraz mrzí

[Verse 2]
C             F
Cítim sa tak bezpečne
C                G
V tvojom mocnom náručí
C             F
Čo si počnem bez teba
G           C
Ivan Ruský poručík

[Chorus]
Am      F       C           G
Červená armáda neodchádzaj preč
Am            F         C          G
Všetci ťa tu máme radi tak nám neuteč
Am      F       C           G
Červená armáda neodchádzaj preč
Am            F        C          G
Všetci ťa tu milujeme tak nám neuteč

[Verse 3]
C               F
Bez teba sme stratení
C               G
A nik nás neochráni
C              F
Možno nás aj prepadnú
G         C
Západní chuligáni

[Verse 4]
C        F
Milujeme Ivana
C            G
Len on musí domov
C              F
Prekliate je zlepšenie
G                 C
Medzinárodných vzťahov

[Chorus]
Am      F       C           G
Červená armáda neodchádzaj preč
Am            F         C          G
Všetci ťa tu máme radi tak nám neuteč
Am      F       C           G
Červená armáda neodchádzaj preč
Am            F        C          G
Všetci ťa tu milujeme tak nám neuteč

[Solo]

e|-------------------------------------------------------------|
B|---------5-6---------5-------------------5-6-5---8-8-8-5-----|
G|-5-5-5-7---------------5-7-7-5-7-5-5-5-7-------7---------7-5-|
D|-------------7-5-5-5-----------------------------------------|
A|-------------------------------------------------------------|
E|-------------------------------------------------------------|

e|-----------------------------------------------------8-8-------|
B|-------------5-6-5---------8-5-------------5h6p5h6-5-----8-5---|
G|-5/7-5-5-5/7-------5/7-5-5-----7-5-5/7-5-5-------------------5-|
D|---------------------------------------------------------------|
A|---------------------------------------------------------------|
E|---------------------------------------------------------------|

[Outro]
Am    F           G
Ahoj, ahoj, ahoj, ahoj...



************************************

| h  Hammer-on
| p  Pull-off
| /  Slide up
 

************************************

            
            
Suggest correction
Creating personal tab
Creating personal tab
You can edit any tab online and save it as your Personal.

You can edit, replace or remove any tab part or add personal notes – all changes will be seen only by you.

Personal tabs can be accessed anytime from any device, even offline.
Learn more »
Give kudos to tab author, rate the tab!
1 2 3 4 5
comments
print report bad tab
guest
You may want to rate the tab now too:
select rating
Wanna post a correction for this tab? Suggest correction