Oops, an error
Loading. Please wait.

Milloin Nään Sut Uudestaan bass

by Robin , Kasmir
82 views 1 this week
no commentswrite comment
1 2 3 4 5
3 more votes to show rating
add to favorites
×
Save as Personal and add changes to this tab that will be seen only by you. Learn more ›
×
You can save this tab as Personal to edit and correct it or add notes. All changes will be seen only by you. Learn more »
launch autoscroll
font size
0
reset
guitar tuner
edit
Autoscroll
slow
fast
+/-
esc
set tempo
stop
Author
Difficulty
About this tab version
Including chords and lyrics to make it easier to follow the tab. Was this info helpful? Yes No
Ei bassoa introssa eikä neljässä ensimmäisessä tahdissa A-osassa.

[Verse 1]
                  Am           Em             G                      Dm
G|--------------|------------|--------------|----------------------|---------------------|
D|---(no-bass)--|------------|--------------|----------------------|---------------------|
A|--------------|------------|--------------|----------------------|-5-------------------|
E|--------------|-5----------|-0------------|-3--------------------|---------------------|
   ... vaan kasvoja - a,         unohdettuja  tarinoita mun mielessä  -  ä           Uu,

   Am               Em               G                Dm
G|----------------|----------------|----------------|----------------|
D|----------------|----------------|----------------|----------------|
A|----------------|----------------|----------------|--5---5---5---5-|
E|--5---5---5---5-|--0---0---0---0-|--3---3---3---3-|----------------|
    u,  uu-u          mä haluun...   uu...               tahallani...

   Am               Em               G                Dm     N.C.
G|----------------|----------------|----------------|--------------------------|
D|----------------|----------------|----------------|--------------------------|
A|----------------|----------------|----------------|--5-----------------------|
E|--5---5---5---5-|--0---0---0---0-|--3---3---3---3-|--------------------------|
  Uu...             joka sana...     uu...         mut silti    mä luulen et sä


[Chorus]
   F                           F/C   Am        Am/C   Em
G|----------------|----------------|----------------|----------------|
D|----------------|----------------|----------------|----------------|
A|----------------|-------------3--|-0---0---0---3--|----------------|
E|-1---1---1---1--|-1---1---1------|----------------|-0---0---0---0--|
   luulet                 ... samat..kuu-lee....                 jea

   F                           F/C   Am        Am/C   Em               N.C.
G|----------------|----------------|----------------|----------------|----------|----------------------|
D|----------------|----------------|----------------|----------------|----------|----------------------|
A|----------------|-------------3--|-0---0---0---3--|----------------|----------|----------------------|
E|-1---1---1---1--|-1---1---1------|----------------|-0---0---0---0--|----------|----------------------|
    eri mimmit ...    katot...        silti ... uudestaan?                       2. Mun korvissa kohisee


[Verse 2]
   Am               Em               G                Dm
G|----------------|----------------|----------------|----------------|
D|----------------|----------------|----------------|----------------|
A|----------------|----------------|----------------|-5---5---5---5--|   (x3)
E|-5---5---5---5--|-0---0---0---0--|-3---3---3---3--|----------------|
              -ee,     sun suu...    ku se ois...               vaan
kuvia,      a,         ilman...      jäädä vaan...                 uu,
  u,    uu-u,          mä haluun...   uu...                tahallani...

   Am               Em               G                N.C.
G|----------------|----------------|----------------|------------------------|
D|----------------|----------------|----------------|------------------------|
A|----------------|----------------|----------------|------------------------|
E|--5---5---5---5-|--0---0---0---0-|--3---3---3---3-|------------------------|
  Uu...             joka sana...     uu...         mut silti, mä luulen et sä


[Chorus]
   F                           F/C   Am        Am/C   Em
G|----------------|----------------|----------------|----------------|
D|----------------|----------------|----------------|----------------|
A|----------------|-------------3--|-0---0---0---3--|----------------|
E|-1---1---1---1--|-1---1---1------|----------------|-0---0---0---0--|
   luulet                 ... samat..kuu-lee....                 jea

   F                           F/C   Am        Am/C   Em
G|----------------|----------------|----------------|----------------|
D|----------------|----------------|----------------|----------------|
A|----------------|-------------3--|-0---0---0---3--|----------------|
E|-1---1---1---1--|-1---1---1------|----------------|-0---0---0---0--|
    eri mimmit ...    katot...        silti ... uudestaan?


[Bridge]
   F                           F/C   Am        Am/C   Em
G|----------------|----------------|----------------|----------------|
D|----------------|----------------|----------------|----------------|
A|----------------|-------------3--|-0---0---0---3--|----------------|  (x2)
E|-1---1---1---1--|-1---1---1------|----------------|-0---0---0---0--|
    Uu, uu, jee-e,   uu, uu, jee-e,  oo,  oo,          milloin...
    Uu, uu, jee-e,   uu, uu, jee-e,  oo,  oo,          milloin...

   Dm                    Em            Am                        Em
G|---------------------|-------------|-------------------------|----------------|
D|---------------------|-------------|-------------------------|----------------|
A|-5-------------------|-------------|-------------------------|----------------|
E|---------------------|-0-----------|-5-----------------------|-0--------------|
  Sun sanojes mukaan mä oon muka sun,   vaikken tiedä nimees mut haluisin tietää

   Dm                             Em             F                                         N.C
G|-------------------------------|-------------|------------------------|-------------|---------------------|
D|-------------------------------|-------------|------------------------|-------------|---------------------|
A|-5-----------------------------|-------------|------------------------|-------------|---------------------|
E|-------------------------------|-0-----------|-1----------------------|-1-----------|---------------------|
      Ollaan nähty muttei tunneta,     jea           haetaan vauhtia muualta      mut silti  mä luulen et sä


[Chorus]
   F                           F/C   Am        Am/C   Em
G|----------------|----------------|----------------|----------------|
D|----------------|----------------|----------------|----------------|
A|----------------|-------------3--|-0---0---0---3--|----------------|
E|-1---1---1---1--|-1---1---1------|----------------|-0---0---0---0--|
   luulet                 ... samat..kuu-lee....                 jea

   F                           F/C   Am        Am/C   Em
G|----------------|----------------|----------------|----------------|
D|----------------|----------------|----------------|----------------|
A|----------------|-------------3--|-0---0---0---3--|----------------|
E|-1---1---1---1--|-1---1---1------|----------------|-0---0---0---0--|
    eri mimmit ...    katot...        silti ... uudestaan?

   F                           F/C   Am        Am/C   Em
G|----------------|----------------|----------------|----------------|
D|----------------|----------------|----------------|----------------|
A|----------------|-------------3--|-0---0---0---3--|----------------|
E|-1---1---1---1--|-1---1---1------|----------------|-0---0---0---0--|
   luulet                 ... samat..kuu-lee....                 jea

   F                           F/C   Am        Am/C   Em
G|----------------|----------------|----------------|----------------|
D|----------------|----------------|----------------|----------------|
A|----------------|-------------3--|-0---0---0---3--|----------------|
E|-1---1---1---1--|-1---1---1------|----------------|-0---0---0---0--|
    eri mimmit ...    katot...        silti ... uudestaan?


[Outro]
   F                           F/C   Am        Am/C   Em
G|----------------|----------------|----------------|----------------|
D|----------------|----------------|----------------|----------------|
A|----------------|-------------3--|-0---0---0---3--|----------------|  (x2)
E|-1---1---1---1--|-1---1---1------|----------------|-0---0---0---0--|
     Uu, uu, jee-e,  uu, uu, jee-e,  oo,  oo,          milloin...
     Uu, uu, jee-e,  uu, uu, jee-e,  oo,  oo,          milloin...

            
            
Suggest correction
Creating personal tab
Creating personal tab
You can edit any tab online and save it as your Personal.

You can edit, replace or remove any tab part or add personal notes – all changes will be seen only by you.

Personal tabs can be accessed anytime from any device, even offline.
Learn more »
Give kudos to tab author, rate the tab!
1 2 3 4 5
comments
print report bad tab
guest
You may want to rate the tab now too:
select rating
Wanna post a correction for this tab? Suggest correction