Oops, an error
Loading. Please wait.

Revontuliyö tab

37 views 1 this week
no commentswrite comment
1 2 3 4 5
2 more votes to show rating
add to favorites
×
Save as Personal and add changes to this tab that will be seen only by you. Learn more ›
×
You can save this tab as Personal to edit and correct it or add notes. All changes will be seen only by you. Learn more »
launch autoscroll
font size
0
reset
how to read this tab
guitar tuner
edit
Autoscroll
slow
fast
+/-
esc
set tempo
stop
Tabitettu korvakuulolta, joten korjausehdotuksia otetaan vastaan! Lyriikat on (lähes) samaan aikaan alimman
kielen kanssa, mutta tilan puutteen takia en saanut noita ylempiä ääniä synkkaamaan.
Figured out by ear so please let me know if there are any corrections.


[Intro]
   C
e|------------------------------------------------|
B|-------1-----------1-----------1-----------1----|
G|----------0-----------0-----------0-----------0-|
D|----2-----------2-----------2-----------2-------|
A|-3-----------3-----------3-----------3----------|
E|------------------------------------------------|

[Verses 1-2]
   C                                  Am7
e|--------------------------------------------------------------------------------------------------|
B|-------1-----------1-----------1-----------1-----------1-----------1------------1------------1----|
G|----------0-----------0-----------0-----------0-----------0-----------0------------0------------0-|
D|----2-----------2-----------2-----------2-----------2-----------2------------2------------2-------|  (x2)
A|-3-----------3-----------2-----------0-----------0-----------0------------0------------0----------|
E|--------------------------------------------------------------------------------------------------|
1. Jäi  kylmä sydämeeni  mun sun poissaoloos havahdun oon taas joenrannassa salaa
2. Oot   ehkä äärellä ... veen luotan siihen haaveeseen ...   eri   tähdet  loistaa

[Verse 3]
  Am7                      C                                  Am7
e|-------------------------------------------------------------------------------------------------|
B|-------1-----------1-----------1-----------1-----------1-----------1------------1-----------1----|
G|----------0-----------0-----------0-----------0-----------0-----------0------------0-----------0-|
D|----2-----------2-----------2-----------2-----------2-----------2------------2-----------2-------|
A|-0-----------2-----------3-----------3-----------2-----------0------------0-----------0----------|
E|-------------------------------------------------------------------------------------------------|
   Ei   routa suostu sulamaan jääkiteet tarttuu kulmaan..huokaukseni ilmaan haihtuu

[Verse 4]
   Am7                    Am7
e|-----------------------------------------------------------------------------------------------------|
B|-------1-----------1-----------1-----------1-----------1-----------1------------1---------------1----|
G|----------0-----------0-----------0-----------0-----------0-----------0------------0---------------0-|
D|----2-----------2-----------2-----------2-----------2-----------2------------2------------2----------|
A|-0-----------2-----------0-----------0-----------0-----------0------------0------------0-----0-------|
E|-----------------------------------------------------------------------------------------------------|
   Kuun valo  lumeen lankeaa se saa mut ylös katsomaan kuinka tulet taivasta maalaa

[Chorus]
    C                                                                      Am7
 e|------------------------------------------------------------------------------------------------|
 B|-------1-----------1-----------1-----------1-----------1-----------1-----------1--------1-------|
 G|----------0-----------0-----------0-----------0-----------0-----------0-----------0-------0-----|
 D|----2-----------2-----------2-----------2-----------2-----------2-----------2---------------2---|
 A|-3-----------3-----------3-----------3-----------3-----------2-----------0-----------0----------|
 E|------------------------------------------------------------------------------------------------|
Tää yö           mut       saa           huomaamaan  kuinka      kaunis ... maa

    C                                                                      Am7
 e|------------------------------------------------------------------------------------------------|
 B|-------1-----------1-----------1-----------1-----------1-----------1-----------1----------------|
 G|----------0-----------0-----------0-----------0-----------0-----------0-----------0-------------|
 D|----2-----------2-----------2-----------2-----------2-----------2-----------2-------------------|
 A|-3-----------3-----------3-----------3-----------3-----------2-----------0-----------0----------|
 E|------------------------------------------------------------------------------------------------|
Tää yö           mut       saa           muistamaan kuinka     paljon sua rakastan

[Verses 5-6]
   C                                  Am7
e|--------------------------------------------------------------------------------------------------|
B|-------1-----------1-----------1-----------1-----------1-----------1------------1------------1----|
G|----------0-----------0-----------0-----------0-----------0-----------0------------0------------0-|
D|----2-----------2-----------2-----------2-----------2-----------2------------2------------2-------|  (x2)
A|-3-----------3-----------2-----------0-----------0-----------0------------0------------0----------|
E|--------------------------------------------------------------------------------------------------|
   Näät  vedet valasranto-jen ja huiput kalliovuorten..suurten metsien      ääreen              6. Kai
   oon silti   sydämessäs sun    mitä jos vain unohdun on julma maailma usein niin

[Chorus]
    C                                                                      Am7
 e|------------------------------------------------------------------------------------------------|
 B|-------1-----------1-----------1-----------1-----------1-----------1-----------1--------1-------|
 G|----------0-----------0-----------0-----------0-----------0-----------0-----------0-------0-----|
 D|----2-----------2-----------2-----------2-----------2-----------2-----------2---------------2---|
 A|-3-----------3-----------3-----------3-----------3-----------2-----------0-----------0----------|
 E|------------------------------------------------------------------------------------------------|
Tää yö           mut       saa           huomaamaan  kuinka      kaunis ... maa

    C                                                                      Am7
 e|------------------------------------------------------------------------------------------------|
 B|-------1-----------1-----------1-----------1-----------1-----------1-----------1----------------|
 G|----------0-----------0-----------0-----------0-----------0-----------0-----------0-------------|
 D|----2-----------2-----------2-----------2-----------2-----------2-----------2-------------------|
 A|-3-----------3-----------3-----------3-----------3-----------2-----------0-----------0----------|
 E|------------------------------------------------------------------------------------------------|
Tää yö           mut       saa           muistamaan kuinka     paljon sua rakastan

[Bridge]
     Am  Em  C  Am  Em  C
(Tää yö...........)
         Am         Em  C
(Saa mut muistamaan......)
         Am         Em
(Saa mut muistamaan......)

[Chorus]
    Am        Em      Am
Tää yö mut saa  huomaamaan
                     C
Kuinka kaunis on tää maa
    Am        Em      Am
Tää yö mut saa  muistamaan
                       C
Kuinka paljon sua rakastan
    Am        Em      Am
Tää yö mut saa  huomaamaan
                     C
Kuinka kaunis on tää maa
    Am        Em
Tää yö mut saa
       Am                            C
        ^                            ^
e|------0----------------------------0--|
B|------1----------------------------1--|
G|------2----------------------------0--|
D|------2----------------------------2--|
A|------0----------------------------3--|
E|--------------------------------------|
        ^                            ^
  Muistamaan kuinka paljon sua rakastan

            
            
Suggest correction
Creating personal tab
Creating personal tab
You can edit any tab online and save it as your Personal.

You can edit, replace or remove any tab part or add personal notes – all changes will be seen only by you.

Personal tabs can be accessed anytime from any device, even offline.
Learn more »
Give kudos to tab author, rate the tab!
1 2 3 4 5
comments
print report bad tab
guest
You may want to rate the tab now too:
select rating
Wanna post a correction for this tab? Suggest correction