Oops, an error
Loading. Please wait.

Kevlarsjäl bass

by Kent
58 views 3 this week
no commentswrite comment
1 2 3 4 5
3 more votes to show rating
add to favorites
×
Save as Personal and add changes to this tab that will be seen only by you. Learn more ›
×
You can save this tab as Personal to edit and correct it or add notes. All changes will be seen only by you. Learn more »
launch autoscroll
font size
0
reset
guitar tuner
edit
Autoscroll
slow
fast
+/-
esc
set tempo
stop
Author
Difficulty
About this tab version
I wrote this tab by ear using the video, linked in this tab, as well as watching some live performances of this song on Youtube. I often play the 2nd fret on the D-string instead of the open E during the beginning of the Chorus (the first four '0's'). The vibrato's after the 4's, 6's and 7's are measured. Leave a comment if you have any suggestions and rate this tab if you like it. -Rhythm13. Was this info helpful? Yes No
Link to the song: https://www.youtube.com/watch?v=w2p2D3-joBc

Played with fingers

[Intro] 00:02 - 00:32

G|---------------------------------------------------------------------------| [Not actually the bass]
D|---------------------------------------------------------------------------|
A|-9`-7~~~-------------------------------------------------------------------| Repeat 9 times
E|---------------------------------------------------------------------------|

[Verse] 00:32 - 00:56

G|---------------------------------------------------------------------------|
D|---------------------------------------------------------------------------|
A|-9`-7~~~-------------------------------------------------------------------| Repeat 7 times
E|---------------------------------------------------------------------------|

[Bridge] 00:56 - 01:03

G|---------------------------------------------------------------------------|
D|-------------------6~---4~~~--4-4-4----------------------------------------|
A|-0~~~~~~~~~------4----4----------------------------------------------------|
E|---------------------------------------------------------------------------|

[Chorus] 01:03 - 01:31

G|---------------------------------------------------------------------------|
D|---------------------------------------------------------------------------|
A|---------4-4-4-4-----------------------------------------------------------|
E|-0-0-0-0---------4-4-4-4-5-5-5-5-0-0-0-0-7`-7~~~~--7\5-5-5-5-5-5-5-5-------| Repeat twice

Repeat Verse 01:31- 02:10
Repeat Bridge 02:10 - 02:17 
Repeat Chorus 02:17 - 02:45

[Solo] 02:45 - 03:10

G|---------------------------------------------------------------------------|
D|---------------------------------------------------------------------------|
A|-4-4-4-4-4-4-2-2-------------2-2-4-4-4-4-4-4-2-2-------------2-2-----------|
E|-----------------0-0-0-0-0-0---------------------0-0-0-0-0-0---------------|

G|---------------------------------------------------------------------------|
D|-----------------------------------6~---4~~~--4-4-4------------------------|
A|-4-4-4-4-4-4-2-2-----------------4----4------------------------------------|
E|-----------------0-0-0-0-0-0-0-0-------------------------------------------|

Repeat Chorus 2 times 03:10 - 04:07
Repeat Intro as Outro 04:07 - 04:26
Absolute silence 04:26 - 04:31

************************************

| `   Sudden stop
| h   Hammer-on
| \   Slide down
| ~   Vibrato

************************************

            
            
Suggest correction
Creating personal tab
Creating personal tab
You can edit any tab online and save it as your Personal.

You can edit, replace or remove any tab part or add personal notes – all changes will be seen only by you.

Personal tabs can be accessed anytime from any device, even offline.
Learn more »
Give kudos to tab author, rate the tab!
1 2 3 4 5
comments
print report bad tab
guest
You may want to rate the tab now too:
select rating
Wanna post a correction for this tab? Suggest correction