Oops, an error
Loading. Please wait.

Vorwärts Ist Keine Richtung chords

version 2
version 2

Whole song

64 views 3 this week
no commentswrite comment
1 2 3 4 5
3 more votes to show rating
add to favorites
×
Save as Personal and add changes to this tab that will be seen only by you. Learn more ›
×
You can save this tab as Personal to edit and correct it or add notes. All changes will be seen only by you. Learn more »
launch autoscroll
font size
0
reset
transpose
0
reset
display chords
guitar tuner
edit
Autoscroll
slow
fast
+/-
esc
set tempo
stop
Strumming
There is no strumming pattern for this song yet. and get +5 IQ
Capo + IV
Im Zupfmuster:                             Im Schlagmuster:
                        C:030050                                C:032013
                        D:054030                                D:054035
                        G:304030                                G:320033
                        B:024030                                B:024432

1. Zupfmuster
   C                 D                  G                   B
e|----------------|------------------|------------------|------------------|
B|-5-----5----5---|-3-----3-----3----|-3-----3-----3----|-3-----3-----3----|
G|---0----0----0--|---0-----0-----0--|---0-----0-----0--|---0-----0-----0--|
D|-----0----0----0|-----4-----4-----4|-----2-----2-----2|-----2-----2-----2|
A|-3--------------|-5----------------|------------------|-2----------------|
E|----------------|------------------|-3----------------|------------------|
 
2. Zupfmuster
  C                             D                            
e|----------------------------|----------------------------|
B|-5---5--5---5--5---5--5---5-|-3---3--3---3--3---3--3---3-|
G|---0------0------0------0---|---0------0------0------0---|
D|--0-0-0--0-0-0--0-0-0--0-0-0|--4-4-4--4-4-4--4-4-0--4-4-4|
A|-3------3------3------3-----|-5------5------5------5-----|
E|----------------------------|----------------------------|

   G                            B
e|----------------------------|----------------------------|
B|-3---3--3---3--3---3--3---3-|-3---3--3---3--3---3--3---3-|
G|---0------0------0------0---|---0------0------0------0---|
D|--2-2-2--2-2-2--2-2-2--2-2-2|--2-2-2--2-2-2--2-2-2--2-2-2|
A|----------------------------|-2------2------2------2-----|
E|-3------3------3------3-----|----------------------------|


   C                            D                            
e|----------------------------|-5-------------5------------|
B|-5---5--5---5--5---5--5---5-|-3---3--3---3--3---3--3---3-|
G|---0------0------0------0---|---0------0------0------0---|
D|--0-0-0--0-0-0--0-0-0--0-0-0|--4-4-4--4-4-4--4-4-0--4-4-4|
A|-3------3------3------3-----|-5------5------5------5-----|
E|----------------------------|----------------------------|

   G                            B
e|---------------5------5-----|-5------5------5------5-----|
B|-3---3--3---3--3---3--3---3-|-3---3--3---3--3---3--3---3-|
G|---0------0------0------0---|---0------0------0------0---|
D|--2-2-2--2-2-2--2-2-2--2-2-2|--2-2-2--2-2-2--2-2-2--2-2-2|
A|----------------------------|-2------2------2------2-----|
E|-3------3------3------3-----|----------------------------|

(1.Zupfmuster)
C D G B

C                  D
auf der suche nach Wahrheit
                G
wie es wirklich ist
                   B
findet man endlich Klarheit
                   C    
bis man sie wieder vergisst

 
                     D
wir fallen in tiefe löcher
                    G
und klettern wieder hinauf
                    B         
und die sonne geht unter
                    C (2.Zupfmuster)
und die sonne geht auf

                            D
wir hängen dinge an große Glocken
                         G
wir pfeifen töne in den wind
                     B
und wundern uns am Morgen
                                C
warum wir noch nicht angekommen sind

 
                        D
denn woanders ist auch immer
                  G
nur ein weiteres hier
                            B
und immer viel zu viel die andern
                           
immer viel zu wenig wir

 
     C (Schlagen)
aber nur weils uns nicht gut geht
                             D
heißt das nicht es geht uns schlecht

nur weil alle anderen reden
                           G
heißt das nicht sie haben recht

wir sind lange schon auf reisen
                         B
und kommen immer nur so weit

wie die Ideen uns tragen
                    C
wie der Mangel uns treibt

 
                   D
Vorwärts ist keine Richtung
                 G
aber alle rennen mit
                     B
das hier ist nicht el dorado
                        C
das ist nur ein kleiner Schritt

 
                     D
rückwärts ist keine Richtung
                  G
aber alle schaun zurück
                        B
das hier ist nicht gotham city
                         C
das ist nur ein kleines stück


C D G B 

C  D  G  B
Oh hoooohoo

C  D  G  B
Oh hoooohoo

(2. Zupfmuster)
C  D   G   B 

C                    D
und die sonne geht unter
                   G
und die sonne geht auf
                     B
wir klettern Löcher hinunter
                   C
und fallen wieder hinauf 



            
            
Suggest correction
Creating personal tab
Creating personal tab
You can edit any tab online and save it as your Personal.

You can edit, replace or remove any tab part or add personal notes – all changes will be seen only by you.

Personal tabs can be accessed anytime from any device, even offline.
Learn more »
Give kudos to tab author, rate the tab!
1 2 3 4 5
comments
print report bad tab
guest
Wanna post a correction for this tab? Suggest correction