Oops, an error
Loading. Please wait.

Llévame Muy Lejos chords

by Amaral
103 views 9 this week
no commentswrite comment
1 2 3 4 5
3 more votes to show rating
add to favorites
×
Save as Personal and add changes to this tab that will be seen only by you. Learn more ›
×
You can save this tab as Personal to edit and correct it or add notes. All changes will be seen only by you. Learn more »
launch autoscroll
font size
0
reset
transpose
0
reset
display chords
guitar tuner
edit
Autoscroll
slow
fast
+/-
esc
set tempo
stop
Author
Difficulty
Strumming Is this strumming pattern correct? Yes No
120 bpm
1
&
2
&
3
&
4
&
Listen
[Intro]
E|------------------------------------------------------------|
B|------------------------------------------------------------|
D|-2-2----------------5-5-5-4----2-2----------------5-5-5-4---|  
G|-----4-4-4-2-2--------------5------4-4-4-2-2--------------5-|
A|----------------5-5----------------------------5-5----------|
E|------------------------------------------------------------|

E|-----------------------------------------------------------------------|
B|-----------------------------------------------------------------------|
D|-2-2-------------------------------------------------------------------|  
G|-----4-4-4-------------------------------------------------------------|
A|-----------3-3-3-3---------- 5-5-5-5---------------------------------5-|
E|-------------------3-3-2-2-2---------5-5-3-3-3-2-2-2-2-2-2-3-3-2-2-2---|

[Verse]
Am
Si mi vida va cuesta abajo
  Em
Y no la puedo parar
G
Si los días pasan de largo
C
A toda velocidad
Am
Si parece que busco algo
Em
Que no se deja encontrar
G
Si me creo que estoy de vuelta
C
Y no llego a ningún lugar
D                           G        C
Si este es el camino que debíamos tomar

[Chorus]
Em                 Bm
Hazme subir para respirar
D                          C
El oxígeno líquido en tus labios
Em                 Bm
Quiero dormir para despertar
D
En un universo paralelo
C
Un refugio en otra dimensión

E|------------------------------|
B|------------------------------|
D|-2-2----------------5-5-5-4---|  
G|-----4-4-4-2-2--------------5-|
A|----------------5-5-----------|
E|------------------------------|

[Verse]
Am
Si estamos luchando solos
Em
Y no podemos ganar
G                      C
Y si todo estaba claro antes de comenzar
D                           G            C
Si este es el camino que elegimos transitar
Em       G  C         D      Bm
Si esta fue mi voluntad

[Chorus]
Em                Bm
Hazme subir para respirar
D                          C
El oxígeno líquido en tus labios
Em                 Bm
Quiero dormir para despertar
D
En un universo paralelo
C                          Em    Bm
Un refugio en otra dimensión
D                          C
Llévame muy lejos, por favor

[Verse]
Am
Si escupo mirando al cielo
Em
En contra de la gravedad
G
Si debo partir de cero
C
Y no sé por dónde empezar
D                        G                  C
Lo único que pido es no volverme a equivocar

[Chorus/Outro]
Em                Bm
Hazme subir para respirar
D                          C
El oxígeno líquido en tus labios
Em                 Bm
Quiero dormir para despertar
D
En un universo paralelo
C                        Em    Bm
Un refugio en otra dimensión
D                          C
Llévame muy lejos, por favor
G                 D
Y hazme flotar y subir
Am                  Em
A cada nueva exhalación
G  Bm
D C G Bm
D
Llévame muy lejos
C
Borra todos mis recuerdos...
Em           Bm
D                    C                  Em      Bm
Llévame muy lejos de este país sin corazón
G
Llévame muy lejos
Bm
Borra todos mis recuerdos
D                      C
De este país sin corazón
G
Llévame muy lejos
Bm
Borra todos mis recuerdos
D                      C
De este país sin corazón

            
            
Suggest correction
Creating personal tab
Creating personal tab
You can edit any tab online and save it as your Personal.

You can edit, replace or remove any tab part or add personal notes – all changes will be seen only by you.

Personal tabs can be accessed anytime from any device, even offline.
Learn more »
Give kudos to tab author, rate the tab!
1 2 3 4 5
comments
print report bad tab
guest
You may want to rate the tab now too:
select rating
Wanna post a correction for this tab? Suggest correction